Slapshock - Numb Chords & Tabs

 

Numb Chords & Tabs

Slapshock Chords & Tabs

Version: 4 Type: Tab 0 ratings
1 star 2 stars 3 stars 4 stars 5 stars
comments

Numb Tab

   
song:   NUMB 
Artist: SLAPSHOCK
Album:  project 11-41

ei mga asa.... joke! hehe dis is d ryt tabs for numb so tapon nu na ung ibang tabs ng
numb djan nyahehe. This tab is from PULP magazine issue #24 june 2002
so simple... ill just write down the tabs and the notes for u
  

tuning : drop C!!!!! DROP C!!!! 

Fig 1 intro (heavy-palm muting  while gradually releasing right hand)
|---------------------------------------------------------------|
|---------------------------------------------------------------|
|---------------------------------------------------------------|
|---------------------------------------------------------------|
|---------------------------------------------------------------|
|-0-0-0-2-2-2-0-0-0-2-2-2-0-0-2-2-------------------------------|
                                  etc.
Fig 2 main riff                            Fill 1:
|-----------------------------------------|----------------------|
|-----------------------------------------|----------------------|
|--7--7--7--7----------7--7--7--7---------|----------------------|
|-----------------------------------------|-------8--------------|
|--5--5--5--5----------5--5--5--5---------|-5--6-----6-----------|
|-------------0-0-0-0-------------0-0-0-0-|----------------------|

Fig 3 verse riff
A)strummed                   B) w/ distortion  heavy riffing
|-------------|-------------||---------|-----------|
|-------------|-------------||---------|-----------|}
|-7-7-7-7-7-7-|-7-7-7-7-7-7-||-0-------|-0---------| }open chord
|-7-7-7-7-7-7-|-5-5-5-5-5-5-||-0-0-0-0-|-0-0-0-0---|}
|-5-5-5-5-5-5-|-5-5-5-5-5-5-||-0-0-0-0-|-0-0-0-0---|
|-------------|-------------||-0-0-0-0-|-0-0-0-0---|
[ Tab from: http://www.guitartabs.cc/tabs/s/slapshock/numb_tab_ver_4.html ]
C) Fill during last part of verse
|--10----------10----------------------etc...-------------------|
|-----10----------10--------------10----------------------------|
|---------7--7-------7--7---7--8------8-------------------------|
|---------------------------------------------------------------|
|---------------------------------------------------------------|
|---------------------------------------------------------------|

D)Rap Riff
|---------------------------------------------------------------|
|---------------------------------------------------------------|
|---------------------------------------------------------------|
|-0--0--pull--------pull---------3----5-------------------------|
|-0--0--off---------off----------3----5-------------------------|
|-0--0--5----0--(0)-3---0--(0)---3----5-------------------------|

fig 4 chorus chords               fill
|------------------------sustain-|--------------------------|
|---sustain----sustain--3--------|--------------------------|
|--9---------10---------2--------|-7---9--(9)/10--9--7------|
|--7---------8----------0--------|--------------------------|
|--7---------8----------0--------|-5---7--(7)/8---7--5------|
|--7---------8----------0--------|--------------------------|

|-------------------------sustain---------------------------|
|----sustain---sustain--3-----------------------------------|
|--9---------5----------2-----------------------------------|
|--7---------3----------0-----------------------------------|
|--7---------3----------0-----------------------------------|
|--7---------3----------0-----------------------------------|

Fig 5 last riff
|--------------------------------------------------------------------|
|--------------------------------------------------------------------|
|--------------------------------------------------------------------|
|----------------------------------------------------------------(12)|
|----------------------------------------------------------------(12)|
|--0--10--12--|--0--10--12--|--0--10--12--|--0--10--12--|--0--10--12-|
Comments