Slapshock - Misterio Chords & Tabs

 

Misterio Chords & Tabs

Slapshock Chords & Tabs

Version: 1 Type: Tab 0 ratings
1 star 2 stars 3 stars 4 stars 5 stars
comments

Misterio Tab

   
I am not so sure that this is the right way to play this song
am just guessing, but it sounds the same.


Artist---slapshock
Song-----Misterio
Album----Novena
Tab by - Gabby_c13@yahoo.com
Tuning - E
	 B
	 F
	 C
	 G
	 C

G1
Intro
E-------0---------0-------0---------0-------0---------0-------0-------------|
B-2-3-2---3-2-3-3---2-3-2---3-2-3-3---2-3-2---3-2-3-3---2-3-2---3-2-3-3-----|
F---------------------------------------------------------------------------|
C---------------------------------------------------------------------------|
G---------------------------------------------------------------------------|
C---------------------------------------------------------------------------|

G2
E----------------------------------------------------------------------------|
B----------------------------------------------------------------------------|
F----------------------------------------------------------------------------|
C-0---------0--0---0--------0--0---3-------3---3----3--------3---3-----------|
G-0---------0--0---0--------0--0---3-------3---3----3--------3---3-----------|
C-0---------0--0---0--------0--0---3-------3---3----3--------3---3-----------|

verse
E----------------------------------------------------------------------------|
B----------------------------------------------------------------------------|
F-------------------------------------------10-------------10----------------|
C-0---------0--0---0--------0--0---3-3---3--10----3-3---3--10----------------|
G-0---------0--0---0--------0--0---3-3---3--8-----3-3---3--8-----------------|
C-0---------0--0---0--------0--0---3-3---3--------3-3---3--------------------|
[ Tab from: http://www.guitartabs.cc/tabs/s/slapshock/misterio_tab.html ]
refrain:
G1
E-------0---------0-------0---------0-------0---------0-------0-------------|
B-2-3-2---3-2-3-3---2-3-2---3-2-3-3---2-3-2---3-2-3-3---2-3-2---3-2-3-3-----|
F---------------------------------------------------------------------------|
C---------------------------------------------------------------------------|
G---------------------------------------------------------------------------|
C---------------------------------------------------------------------------|

G2

E----------------------------------------------------------------------------|
B----------------------------------------------------------------------------|
F----------------------------------------------------------------------------|
C-0---------0--0---0--------0--0---3-------3---3----3--------3---3-----------|
G-0---------0--0---0--------0--0---3-------3---3----3--------3---3-----------|
C-0---------0--0---0--------0--0---3-------3---3----3--------3---3-----------|


chorus:

E------------------------------------------------------------|
B------------------------------------------------------------|
F--------3--3---5----5--5--5--5--5--5---7--7---3--3---5--5---|
C-0--0---3--3---5----5--5--5--5--5--5---7--7---3--3---5--5---|
G-0--0---1--1---3----3--3--3--3--3--3---5--5---1--1---3--3---|
C-0--0-------------------------------------------------------|

E------------------|
B------------------|
F------------------|
C------------------|
G-0-2-3-0-2-3-2-0--|
C-0-2-3-0-2-3-2-0--|

bridge riff

E-----------------------------------------------------------------------------|
B--13-13-15-13-16-13-15-13---13-15-13-16-13-15--------------------------------|
F-----------------------------------------------------------------------------|
C-----------------------------------------------------------------------------|
G-----------------------------------------------------------------------------|
C-----------------------------------------------------------------------------|

chords is the same as its intro chords.

For any reaction with this tab just email me, gabby_c13@yahoo.com or call 09273693161.
Does any have the lyrics of this song?  plz send me.cuz i dont have its lyrics
Comments