Slapshock - Miles Away Chords & Tabs

 

Miles Away Chords & Tabs

Slapshock Chords & Tabs

Version: 1 Type: Tab 0 ratings
1 star 2 stars 3 stars 4 stars 5 stars
comments

Miles Away Tab

   
Slapshock-Miles Away
New single from there album Novena
Tabber- Joneil T.

Intro
      G           Emb              F
E |----------------------------------------------------------------|
B |----------------------------------------------------------------|
G |---4-----------------------------2------------------------------|
D |---5-10x-------1---5x------------3---5x-------------------------|
A |---5-----------1-----------------3------------------------------|
E |---3-----------0-----------------1------------------------------|
[ Tab from: http://www.guitartabs.cc/tabs/s/slapshock/miles_away_tab.html ]
Verse
      G               Emb       F         G
E |---------3-3-3-3------------------------------------------------|
B |-------3-3-3-3-3------------------------------------------------|
G |-----4--------------0---------2---------4-----------------------|
D |----5-5------------1-1-------3-3-------5-5----------------------|
A |---5--------------1---1-----3---3-----5---5---------------------|
E |--3--------------0---------1---------3--------------------------|

Chorus

E |----------------------------------------------------------------|
B |----------------------------------------------------------------|
G |--4----------7------------2--------4----------------------------|
D |--5--5x------10--5x-------3--5x----5--1x------------------------|
A |--5----------10-----------3--------5----------------------------|
E |--3----------8------------1--------3----------------------------|
Comments