Slapshock - Like You Chords & Tabs

 

Like You Chords & Tabs

Slapshock Chords & Tabs

Version: 1 Type: Tab 0 ratings
1 star 2 stars 3 stars 4 stars 5 stars
comments

Like You Tab

-----------------------------------------------------------------------------
This file is the author's own work and represents their interpretation of the
song.You may only use this file for private study, scholarship, or research.
-----------------------------------------------------------------------------

SONG: Like U
BAND: Slapshock
ALBUM: Headtrip
Tuning: Drop d tuning DADGBE
note: Slapshock's tuning is whole step down 
DGCFAD. I only use drop d tuning in order to make the 
song easier to play.EnJoY!!!!!!(",

LEGEND:

/ or \   - slide up or down
p        - pull off
h	 - hammer on
p.m. --- - palm mute
b        - bend

Intro:
E ----------------------------------   -----------
B ----------------------------------   -----------
G ----------------------------------4x -----------
D --1-1-1-0--0-1--1-1-1-0--1-1h3-1--   --0--0--0--
A --1-1-1-0--0-1--1-1-1-0--1-1h3-1--   --0--0--0--
D --1-1-1-0--0-1--1-1-1-0--1-1h3-1--   --0--0--0--
p.m.- - -         - - -

Verse:
E ------------------   -----------
B ------------------   -----------
G ------------------4x -----------
D --1-0--0-0-1-0----   --0--0--0--
A ---------------1--   --0--0--0--
D ------------------   --0--0--0--
 |____clean tone___|   |distortion|

E -------------------  
B -------------------  
G -------------------4x 
D --1-0--0-0-1-0-----   
A ---------------1---   
D -----------------0- 

Chorus:
E -------------------------------------------------------------
B -------------------------------------------------------------
G --7--7-7-7--7-7-7--3--3-3-3--3-3-3---------------------------
D --7--7-7-7--7-7-7--3--3-3-3--3-3-3-0-1-0-1-0-1--0-1-0-1-0-1--
A --5--5-5-5--5-5-5--1--1-1-1--1-1-1-0-1-0-1-0-1--0-1-0-1-0-1--
D -----------------------------------0-1-0-1-0-1--0-1-0-1-0-1-- 
  |___________clean tone___________| |____heavy distortion____|
[ Tab from: http://www.guitartabs.cc/tabs/s/slapshock/like_you_tab.html ]
-------------------------------------------------------------
-------------------------------------------------------------
--7--7-7-7--7-7-7--3--3-3-3--3-3-3---------------------------(2x)
--7--7-7-7--7-7-7--3--3-3-3--3-3-3-0-1-0-1-0-1--0-1-0-1-0-1--
--5--5-5-5--5-5-5--1--1-1-1--1-1-1-0-1-0-1-0-1--0-1-0-1-0-1--
-----------------------------------0-1-0-1-0-1--0-1-0-1-0-1-- 

Interlude:
E -------------------   -------------------
B -------------------   -------------------
G -------------------3x -------------------
D --1-0--0-0-1-0-----   --1-0-0-0--0-0--0--
A ---------------1---   ------0-0--0-0--0--
D -----------------0-   ------0-0--0-0--0--

Verse2:
E ------------------   -----------
B ------------------   -----------
G ------------------4x -----------
D --1-0--0-0-1-0----   --0--0--0--
A ---------------1--   --0--0--0--
D ------------------   --0--0--0--
 |____clean tone___|   |distortion|

E -------------------  
B -------------------  
G -------------------4x 
D --1-0--0-0-1-0-----   
A ---------------1---   
D -----------------0- 

(repeat chorus)

E ----------------------------------   
B ----------------------------------   
G ----------------------------------4x 
D --1-1-1-0--0-1--1-1-1-0--1-1h3-1--   
A --1-1-1-0--0-1--1-1-1-0--1-1h3-1--   
D --1-1-1-0--0-1--1-1-1-0--1-1h3-1--   
p.m.- - -         - - -

Bridge:
E ----------------------------------11-11-----10-10----
B -----------------------------10-10-----10-10-----10--
G -----------------------------------------------------9x
D --0-0-0--1-1-1--3-3-3--0-0-0-------------------------
A --0-0-0--1-1-1--3-3-3--0-0-0-------------------------
D --0-0-0--1-1-1--3-3-3--0-0-0-------------------------
p.m.- -    - -    - -    - -

E ----------------------------------------
B ----------------------------------------
G ----------------------------------------
D ---------5---------5---------5------5---4x
A --5-5--5-5--5-5--5-5--5-5--5-5--5-5-5---
D --5-5--5----5-5--5----5-5--5----5-5-----

(repeat chorus)

E ----------------------------------11-11-----10-10----
B -----------------------------10-10-----10-10-----10--
G -----------------------------------------------------5x
D --0-0-0--1-1-1--3-3-3--0-0-0-------------------------
A --0-0-0--1-1-1--3-3-3--0-0-0-------------------------
D --0-0-0--1-1-1--3-3-3--0-0-0-------------------------
p.m.- -    - -    - -    - -

That’s the end of it,this song is so hot!! E-mail me if you find something wrong in this tabs…www.krozzbridd@hotmail.com
Comments