Slapshock - High Times Chords & Tabs

 

High Times Chords & Tabs

Slapshock Chords & Tabs

Version: 1 Type: Tab 0 ratings
1 star 2 stars 3 stars 4 stars 5 stars
comments

High Times Tab

   
HIGH TIMES
tabs by;Hamabar

All Guitars Tuned Down One Whole Step
From Low to High (D G C F A D) 

Intro
Play 8 times
D|--------------|----|
A|--------------|----|
F|--------------|----|
C|--------------|-2--|
G|-2-2-2-2--7-8-|-2--|
D|-0-0-0-0--5-6-|-0--|


Verse
D|--------------------------------------|
A|--------------------------------------|
F|--------------------------------------|
C|-2--2-2--2-2-2-2---2--2-2--2-2-2-2-2--|
G|-2--2-2--2-2-2-2---2--2-2--2-2-2-2-2--|
D|-0--0-0--0-0-0-0---0--0-0--0-0-0-0-0--|


1st Verse Only
D|--------------|
A|--------------|
F|--------------|
C|-2--7-9--7-9--|
G|-2--5-7--5-7--|
D|-0------------|

[ Tab from: http://www.guitartabs.cc/tabs/s/slapshock/high_times_tab.html ]
Pre-Chorus
Play 4 Times
D|----------------------------|
A|----------------------------|
F|----------------------------|
C|---------------5------------|
G|----------h5-7---7-6-5h5-7--|
D|-0--0-0--0------------------|


Chorus
D|------------------------------------------------|
A|------------------------------------------------|
F|---------------------------10--9---9---9---9-9--|
C|-10--9---9---9---9-9--------8-/7---7---7---7-7--|
G|--8-/7-x-7-x-7-x-7-7---x-x-------x---x---x------|
D|-------0---0---0-------0-0-------0---0---0------|


PM------------------------------------|
D|------------------------------------------|
A|------------------------------------------|
F|------------------------------------------|
C|-2-2--2-2--2-2--2-2---2-2--2-2--2-2--2-2--|
G|-2-2--2-2--2-2--2-2---2-2--2-2--2-2--2-2--|
D|-0-0--0-0--0-0--0-0---0-0--0-0--0-0--0-0--|


Bridge
D|--------------------|
A|--------------------|
F|--------------------|
C|----------12--------|
G|-------12-10-12-10--|
D|-0-0-0-10----10--8--|


Song Structure:
Intro
Verse
Pre-Chorus
Chorus
Pre-Chorus
Verse
Chorus
Bridge
Chorus
Comments