Slapshock - Countdown Chords & Tabs

 

Countdown Chords & Tabs

Slapshock Chords & Tabs

Version: 1 Type: Tab 0 ratings
1 star 2 stars 3 stars 4 stars 5 stars
comments

Countdown Tab

song:countdown
album:11-41
artist:SLAPSHIT
tab by:leander m.
tune:drop D

intro:
E|----------------------------------------        ---------------------|
B|----------------------------------------        ---------------------|
G|----------------------------------------(repeat)---------------------|
D|--------12---------------9--8\11-11-11--  (7x)  --------12-----------|
A|--10-10-10-10-10--10-10--9--8\11-11-11--        --10-10-10-10-10-10--|
D|--10-10-10-10-10--10-10--9--8\11-11-11--        --10-10-10-10-10-10--|
 guitar II(one two all I got is a semi...) 
E|-----------------------------------|
B|------------------8-8--------------|
G|--5-5-3-3-6-6-5-5-----5-5-3-3-6-6--|
D|-----------------------------------|
A|-----------------------------------|
D|-----------------------------------|
[ Tab from: http://www.guitartabs.cc/tabs/s/slapshock/countdown_tab.html ]
 guitar I
E|-----------------15-15-----------------------------|
B|--13-13-13-13-13-------14-13-13-13-13-13-11-11-14--|
G|---------------------------------------------------|
D|---------------------------------------------------|
A|---------------------------------------------------|
D|---------------------------------------------------|

 "on won't be down"(guitar I only)
  guitar II again on brother brother c'mon got to carry on 
  
refrain:(guitar I repeat 4x)
E|-------------------------------|
B|-------------------------------|
G|-------------------------------|
D|--5-5-5\6/5--5-5\6/5--5-5\6/5--|
A|--3-3-3\4/3--3-3\4/3--3-3\4/3--|
D|--0-0-0\0/0--0-0\0/0--0-0\0/0--|
guitar II after guitar I repeat 4x 
E|--------15-15--------|
B|--13-13-------14-14--|
G|---------------------|
D|---------------------|
A|---------------------|
D|---------------------|

repeat intro
repeat stanza
repeat chorus

ending riff
guitar II(repeat 4x)(repeat 3x again without break[(x)]
E|--------------------||-------------------------|
B|--------------------||-------------------------|
G|--------------------||-------------------------|
D|--5x5x-----6-----6--||--5-5--3-3-3-3--5-5-5-5--|
A|--3x3x-----4-----4--||--3-3--1-1-1-1--3-3-3-3--|
D|--0x0x-0-0---0-0----||--0-0--0-0-0-0--0-0-0-0--|
         . .   . .
repeat intro then

finale  
E|-----|
B|-----|
G|-----|
D|--0--|
A|--0--|
D|--0--|

tab by:leander m.
        the end
       cOr@_t!r@
Comments