Slapshock - Anino Mo Chords & Tabs

 

Anino Mo Chords & Tabs

Slapshock Chords & Tabs

Version: 4 Type: Tab 0 ratings
1 star 2 stars 3 stars 4 stars 5 stars
comments

Anino Mo Tab

Drop D tuning

Intro:
E---------------------------------------------|
B---------------------------------------------|
G---------------------------------------------| 4x
D--10--x--13\12--10--x--13\12--8--10----------| 
A--10--x--13\12--10--x--13\12--8--10----------|
D--10--x--13\12--10--x--13\12--8--10----------| 

E---------------------------------------------|
B---------------------------------------------|
G---------------------------------------------| 2x
D---------------------------------------------|
A-----------8-8-8-6-6-6-6-6-6-6-5-5-6---------|
D--10-10-10-----------------------------------|

Verse:
E----------------------8--------------------8-------------------6-----------------6------|
B--------------------8--------------------8---8---------------6-----------------6---6----|
G----------------------------------------------------------------------------------------| 3x
D----------------------------------------------------------------------------------------|
A-----------8-8-8-6---------------8-8-8-6-------------6-6-6-5-----------6-6-6-5----------|
D--10-10-10--------------10-10-10---------------8-8-8-------------8-8-8------------------|

Pre-chorus:
E--3~--1~--------|
B--4~--2~--------|
G--3~--1~--------| 4x
D--5~--3~--------|
A--3~--1~--------|
D----------------|

chorus:
E-----------------------------| |-------------------------------------------------------------|
B-----------------------------| |-------------------------------------------------------------|
G-----------------------------| |-------------------------------------------------------------|3x
D--10-10--12-12--10-10--12-12-| |-x-x-x-x--10-10-x-x--x--12-12-x-x--x-10-10-x-x--x--12-12-12--|
A--10-10--12-12--10-10--12-12-| |-x-x-x-x--10-10-x-x--x--12-12-x-x--x-10-10-x-x--x--12-12-12--|
D--10-10--12-12--10-10--12-12-| |-x-x-x-x--10-10-x-x--x--12-12-x-x--x-10-10-x-x--x--12-12-12--|

E---------------------------------------------|
B---------------------------------------------|
G---------------------------------------------| 4x
D--10--x--13\12--10--x--13\12--8--10----------| 
A--10--x--13\12--10--x--13\12--8--10----------|
D--10--x--13\12--10--x--13\12--8--10----------| 


2nd Verse :
E----------------------8--------------------8-------------------6-----------------6------|
B--------------------8--------------------8---8---------------6-----------------6---6----|
G----------------------------------------------------------------------------------------|3x
D----------------------------------------------------------------------------------------|
A-----------8-8-8-6---------------8-8-8-6-------------6-6-6-5-----------6-6-6-5----------|
D--10-10-10--------------10-10-10---------------8-8-8-------------8-8-8------------------|


Pre-chorus:
E--3~--1~--------|
B--4~--2~--------|
G--3~--1~--------| 4x
D--5~--3~--------|
A--3~--1~--------|
D----------------|


chorus:
E-----------------------------| |-------------------------------------------------------------|
B-----------------------------| |-------------------------------------------------------------|
G-----------------------------| |-------------------------------------------------------------|3x
D--10-10--12-12--10-10--12-12-| |-x-x-x-x--10-10-x-x--x--12-12-x-x--x-10-10-x-x--x--12-12-12--|
A--10-10--12-12--10-10--12-12-| |-x-x-x-x--10-10-x-x--x--12-12-x-x--x-10-10-x-x--x--12-12-12--|
D--10-10--12-12--10-10--12-12-| |-x-x-x-x--10-10-x-x--x--12-12-x-x--x-10-10-x-x--x--12-12-12--|


E---------------------------------------------|
B---------------------------------------------|
G---------------------------------------------| 4x
D--10--x--13\12--10--x--13\12--8--10----------| 
A--10--x--13\12--10--x--13\12--8--10----------|
D--10--x--13\12--10--x--13\12--8--10----------| 
[ Tab from: http://www.guitartabs.cc/tabs/s/slapshock/anino_mo_tab_ver_4.html ]
E-------------------------------------|    |-------------------------------------|
B-------------------------------------|2x  |-------------------------------------|
G-------------------------------------|    |-------------------------------------| 
D-------------------------------------|    |-5---8-8-8-7---10-10-10---8--12------|
A-------------------------------------|    |-3---6-6-6-5---8--8--8----6--10------|
D--10-10-10-8-8-8-6-6-6-5-5-5-6-6-8-8-|    |-------------------------------------|
   di       mo    ma----la----man
   di       mo    ma----ki----ta

E-------------------------------------|    |-------------------------------------|
B-------------------------------------|2x  |-------------------------------------|
G-------------------------------------|    |-------------------------------------| 
D-------------------------------------|    |-5---8-8-8-7---10-10-10---8--12------|
A-------------------------------------|    |-3---6-6-6-5---8--8--8----6--10------|
D--10-10-10-8-8-8-6-6-6-5-5-5-6-6-8-8-|    |-------------------------------------|
   sa       i-----yong  ma----ta 
  akoy      na----wa----wa----la

E-------8----------8----------8------------8-----------|
B------8----------8----------8------------8------------|
G------------------------------------------------------| 4x
D------------------------------------------------------|
A------------------------------------------------------|
D--10----------8----------6------------7---------------|
   ang       bawat     lingon mo sa   buhay........      
   ang       bawat     buhay  na      makulay....... 

E------------------------------------------------------------------------------------------|
B------------------------------------------------------------------------------------------|
G------------------------------------------------------------------------------------------|3x
D--10--x-x---------10-10-10----------------6-------------8---------------------------------|
A--10--x-x---------10-10-10----------------6-------------8---------------------------------|
D--10--x-x---------10-10-10----------------6-------------8---------------------------------|
     sundan   moooooooooooooo                 ang      anino ko                      
     tingnan  moooooooooooooo                 nasan  na ba  ako
     sundan   moooooooooooooo                 ang      anino ko   


E------------------------------------------------------------------|
B------------------------------------------------------------------|
G------------------------------------------------------------------|
D--10--x-x---------10-10-10-------5---8-8-8-7---10-10-10-8-12------|
A--10--x-x---------10-10-10-------3---6-6-6-5---8--8--8--6-10------|
D--10--x-x---------10-10-10----------------------------------------|
     sundan   moooooooooooooo                       
     
chorus:
E-----------------------------|-------------------------------------------------------------|
B-----------------------------|-------------------------------------------------------------|
G-----------------------------|-------------------------------------------------------------|3x
D--10-10--12-12--10-10--12-12-|-x-x-x-x--10-10-x-x--x--12-12-x-x--x-10-10-x-x--x--12-12-12--|
A--10-10--12-12--10-10--12-12-|-x-x-x-x--10-10-x-x--x--12-12-x-x--x-10-10-x-x--x--12-12-12--|
D--10-10--12-12--10-10--12-12-|-x-x-x-x--10-10-x-x--x--12-12-x-x--x-10-10-x-x--x--12-12-12--|

outro
E------------------------------------------------------------------------------------------------|
B------------------------------------------------------------------------------------------------|
G------------------------------------------------------------------------------------------------|
D-10-10-x-x--x--12-12-x-x--x-10-10-x-x--x--12-12-12--10-10-x-x--x--12-12-x-x--x-10-10-x-x--x--12\|
A-10-10-x-x--x--12-12-x-x--x-10-10-x-x--x--12-12-12--10-10-x-x--x--12-12-x-x--x-10-10-x-x--x--12\|
D-10-10-x-x--x--12-12-x-x--x-10-10-x-x--x--12-12-12--10-10-x-x--x--12-12-x-x--x-10-10-x-x--x--12\|

End.

did this for my Love..NAZ MARZOņA..hope she see this..mail me..if sumthinz
wrong..kangkelkurnitz_xxviii@yahoo.com
Comments