Slapshock - Anino Mo Chords & Tabs

 

Anino Mo Chords & Tabs

Slapshock Chords & Tabs

Version: 1 Type: Tab 0 ratings
1 star 2 stars 3 stars 4 stars 5 stars
comments

Anino Mo Tab

   
Artist: 		 Slapshock
Title: 		 Anino Mo
Transcribed by: Zander M. Bool
			 zander12_06@yahoo.com


Hey guys, this is a nice song, although very simple to learn. Knowing that they used heavily distorted guitars here, I translated this using my acoustic guitar, because I don’t have an electric one! But I assure you, this transcription is correct, and it sounds pretty good! So, play it well.
Note: this is only for the 1st guitar

Standard tuning

Intro
A
e|-------------------------------------|
b|-------------------------------------|
g|--5---x--87--7--5--x--87--7--3--5--|
d|--5---x--87--7--5--x--87--7--3--5--|
a|--3---x--65--5--3--x--65--5--1--3--|
E|-------------------------------------| repeat 4x, then
B
e|-------------------------------------|
b|-------------------------------------|
g|-------------------------------------|
d|--------3-3-3------------------------|
a|--3-3-3-------6-6-6-6-6-6-5-5-6-6----|
E|-------------------------------------| 2x



I
e|-------------------8-------------------8---|  --
b|-----------------8-------------------8--8--|	 
g|-------------------------------------------|	  |
d|--------3-3-3----------------3-3-3---------|	  |
a|--3-3-3-------6--------3-3-3-------6-------|	  |  3x for stanza I
E|-------------------------------------------|	  |
 |										  |
 |										  |
 |										  |
e|-------------------6------------------6----|	  |
b|-----------------6------------------6--6---|	  |
g|-------------------------------------------|	  |
d|--------1-1-1-0-------------1-1-1-0--------|	  |
a|--1-1-1---------------1-1-1----------------|	 /
E|-------------------------------------------|  --


Refrain (let ring)
e|--3----1----3----1-------------------------|
b|--3----1----3----1-------------------------|
g|--5----3----5----3-------------------------|  2x for Refrain
d|--5----3----5----3-------------------------|
a|--3----1----3----1-------------------------|
E|--3----1----3----1-------------------------|

[ Tab from: http://www.guitartabs.cc/tabs/s/slapshock/anino_mo_tab.html ]
Chorus
e|-------------------------------------------------|
b|--------------------------------------------888--|
g|-55--77--55--77-xxxx55-xx-x77-xx-x55-xx-x77-777--|
d|-55--77--55--77-xxxx55-xx-x77-xx-x55-xx-x77-555--|
a|-33--55--33--55-xxxx33-xx-x55-xx-x33-xx-x55------|
E|-------------------------------------------------|
 |
 |
e|-------------------------------------------------------------|
b|--------------------------------------------------------888--|
g|-55-xx-x77-xx-x55-xx-x77-xxxx55-xx-x77-xx-x55-7/87-888-777--|
d|-55-xx-x77-xx-x55-xx-x77-xxxx55-xx-x77-xx-x55-7/87-888-555--|
a|-33-xx-x55-xx-x33-xx-x55-xxxx33-xx-x55-xx-x33-5/65-666------|
E|-------------------------------------------------------------|





Do intro A

Do stanza I for stanza II

Do refrain

Chorus

Do intro A

‘di mo malaman, ‘di mo Makita..
e|-------------------------------------------------------------------|
b|-------------------------------------------------------------------|
g|-------------------------------------------------------------------|
d|-------------------------------------------------------------------| ß
a|--3-3-3-1-1-1-----------------1-1-3-3-3-1-1-1-----------------1-1--|  |
E|--------------4-4-4-3-3-3-4-4-----------------4-4-4-3-3-3-4-4------|  |
 |														  |
 |														  |
e|---------------------------------------|						  |
b|---------------------------------------|						  |
g|--5--8--7--10--8-12-5--8--7--10--8-12--| ß--------  2x    ------------        
d|--5--8--7--10--8-12-5--8--7--10--8-12--|
a|--3--6--5--8---6-10-3--6--5--8---6-10--|
E|---------------------------------------|



Ang bawat lingon mo sa buhay..
e|------8------8--------8--------8------8------8--------8--------8--|
b|----8------8-------8--------8-------8------8-------8--------8-----|
g|------------------------------------------------------------------|
d|------------------------------------------------------------------|
a|------------------------------------------------------------------|
E|--8------6------4--------6--------8------6------4--------6--------|
         2x




(sundan mo) ang anino ko
e|---------------------------------------------|
b|---------------------------------------------|
g|--5-xxxx-5-5-5---------5-xxxx-5-5-5----------|
d|--5-xxxx-5-5-5-6---8---5-xxxx-5-5-5-6---8----|
a|--3-xxxx-3-3-3-6---8---3-xxxx-3-3-3-6---8----|
E|---------------4---6----------------4---6----|
 |
e|--------------------------------------------------------------|
b|--------------------------------------------------------------|
g|--5-xxxx-5-5-5---------5-xxxx-5-5-5---------------------------|
d|--5-xxxx-5-5-5-6---8---5-xxxx-5-5-5-555-888-777-101010-8--12--|
a|--3-xxxx-3-3-3-6---8---3-xxxx-3-3-3-333-666-555-8-8-8--6—-10--|
E|---------------4---6------------------------------------------|

Chorus

Ending
e|--------------------------------------------------------|
b|--------------------------------------------------------|
g|--55-xx-x77-xx-x55-xx-x77-xx-x55-xx-x77-xx-x55-7/87-8--|
d|--55-xx-x77-xx-x55-xx-x77-xx-x55-xx-x77-xx-x55-7/87-8--|
a|--33-xx-x55-xx-x33-xx-x55-xx-x33-xx-x55-xx-x33-5/65-6--|
E|--------------------------------------------------------|

That’s it! Play with your cd to get the timings. E-mail me if you have suggestions: zander12_06@yahoo.com. And add me in friendster! :-)


Artist:		  Slapshock
Title:		  Anino Mo
Transcribed by:  Zander M. Bool
Comments