Slapshock - Agent Orange Chords & Tabs

 

Agent Orange Chords & Tabs

Slapshock Chords & Tabs

Version: 6 Type: Tab 0 ratings
1 star 2 stars 3 stars 4 stars 5 stars
comments

Agent Orange Tab

   
song: Agent Orange (acoustic)
artist: Slapshock
tabbed by: @mark_qute
info:any correction,suggestion,comment e-mail me mark_qute@yahoo.com or txt/call: 09205736823

intro/stanza:
guitar I
E|-----------------------------------------------------|
B|-----------------------------------------------------|
G|-----------------------------------------------------|
D|-1-2----2-------------2p3p2-----2-------------2p3p2--|
A|-------2------3-----2-------2--2------3-----2--------|
E|------0-----1---1-0-----------0-----1---1-0----------|
[ Tab from: http://www.guitartabs.cc/tabs/s/slapshock/agent_orange_tab_ver_6.html ]
guitar II
E|---------------------------------|
B|------4h6------------------------|
G|--5h7-----5h7-5-5h7-5-----5-5h7--|
D|----------------------7-7--------|
A|---------------------------------|
E|---------------------------------|

chorus(agent orange,get up(3x)chord is D5-Eb
bridge-D5-C5(with pause every chords,just hear the song)
close my eyes,close my mind,still burni'n inside(D5-E5)
E|-----------------------------------------|
B|-----------------------------------------|
G|--8-7-7-7-7-8-7-7-7-7-8-7-7-7-7-8-8-8-7--|(strum)
D|--8-7-7-7-7-8-7-7-7-7-8-7-7-7-7-8-8-8-7--|
A|-----------------------------------------|
E|-----------------------------------------|

tabbed by:mark_qute@yahoo.com      *end*
Comments