Slapshock - Agent Orange Chords & Tabs

 

Agent Orange Chords & Tabs

Slapshock Chords & Tabs

Version: 4 Type: Tab 0 ratings
1 star 2 stars 3 stars 4 stars 5 stars
comments

Agent Orange Tab

   
Intro/Riff 1: 
(this will sound better if you'll play it on bass)
guitar 2 will play this 10 times
E|-------------------|
B|-------------------|
G|---7-------7/8-7---|
D|--7---8---7------7-|
A|-5---6-6-5---------|
E|-------------------|
[ Tab from: http://www.guitartabs.cc/tabs/s/slapshock/agent_orange_tab_ver_4.html ]
Riff 2:
this will enter on the third measure of riff 1
Repeat 4 times
E|-8h10--13--10--8-8h10--8\5--6-8-|
B|--------------------------------|
G|--------------------------------|
D|--------------------------------|
A|--------------------------------|
E|--------------------------------|

Chorus:
Repeat 6 times
E|-----------------------------|
B|-----------------------------|
G|-----------------------------|
D|0-0-0-0-0-h1-0-0-0-0-0-h1-0-1|
A|0-0-0-0-0-h1-0-0-0-0-0-h1-0--|
E|0-0-0-0-0-h1-0-0-0-0-0-h1-0--|

Then, repeat riff 1 10 times again with riff 2 4 times again
Comments