Slapshock - Agent Orange Chords & Tabs

 

Agent Orange Chords & Tabs

Slapshock Chords & Tabs

Version: 1 Type: Tab 0 ratings
1 star 2 stars 3 stars 4 stars 5 stars
comments

Agent Orange Tab

tabbed by:rommel Aribon
artist:slapshock
song: agent orange
any comment or suggestion just email at zhabree143@yahoo.com

Hi!s mga fans ng slapshock check this out!!!! Astig to mga tol tingnan nyo na lang



BAse:
----------9---------------10--------------9-9/10----9-----------------
------9--------------10-------------9---------------------------------
--7-------------8-------------7---------------------------------------
----------------------------------------------------------------------


Guitar!
[ Tab from: http://www.guitartabs.cc/tabs/s/slapshock/agent_orange_tab.html ]
--12--13h15---12------------------------------------------------------
-------------------15---15h17----15/12--12--13--15--------------------
----------------------------------------------------------------------
----------------------------------------------------------------------
----------------------------------------------------------------------
----------------------------------------------------------------------

---12--13h15---12-----------------------------------------------------
----------------------15--15h17----15/12--13--------------------------
----------------------------------------------------------------------
----------------------------------------------------------------------
----------------------------------------------------------------------
----------------------------------------------------------------------

Sana nag enjoy kayo sa susunod na yung iba!!!! kakapain ko papero Astig tiba


Comments