Slapshock - Agent Orange Acoustic Chords & Tabs

 

Agent Orange Acoustic Chords & Tabs

Slapshock Chords & Tabs

Version: 1 Type: Tab 0 ratings
1 star 2 stars 3 stars 4 stars 5 stars
comments

Agent Orange Acoustic Tab

   
song:agent orange(acoustic)
album:rivermaya acoustic live
artist:slapshit
tabbed by:leander m.
info:any correction,suggestion,comment e-mail me at leander

intro/stanza:
guitar I
E|-----------------|
B|--------------4--|
G|--7---7-----5----|
D|--7-7---7-5------|
A|--5-------3------|
E|-----------------|
[ Tab from: http://www.guitartabs.cc/tabs/s/slapshock/agent_orange_acoustic_tab.html ]
guitar II
E|---------------------------------|
B|------4h6------------------------|
G|--5h7-----5h7-5-5h7-5-----5-5h7--|
D|----------------------7-7--------|
A|---------------------------------|
E|---------------------------------|

chorus(agent orange,get up(3x)chord is D5-Eb
bridge-D5-C5(with pause every chords,just hear the song)
close my eyes,close my mind,still burni'n inside(D5-E5)
E|-----------------------------------------|
B|-----------------------------------------|
G|--8-7-7-7-7-8-7-7-7-7-8-7-7-7-7-8-8-8-7--|(strum)
D|--8-7-7-7-7-8-7-7-7-7-8-7-7-7-7-8-8-8-7--|
A|-----------------------------------------|
E|-----------------------------------------|

tabbed by:leander_85@yahoo.com      end
Comments