Slackers - Rude And Reckless Chords & Tabs

 

Rude And Reckless Chords & Tabs

Slackers Chords & Tabs

Version: 1 Type: Bass Tab 0 ratings
1 star 2 stars 3 stars 4 stars 5 stars
comments

Rude And Reckless Bass Tab

Title: Rude & Reckless
Album: Redlight
By: The Slackers
Transcriber: mr_sullivan@geocities.com

V1

G------------------------------------------------
D------------------------------------------------
A----------5--3--5--3--------------5--3--5--3----
E-1--1--1--------------5--3--3--3--------------5-

V2
[ Tab from: http://www.guitartabs.cc/tabs/s/slackers/rude_and_reckless_btab.html ]
G------------------------------------------------------
D-------------------------------------3----------------
A----------5--3--5--3--------------5-----5--3--5--3----
E-1--1--1--------------5--3--3--3--------------------5-


The Music:

(Intro - no bass)

V1 (slow) x4  (Chorus 1)

V1 x2

V1 x4  (Verse 1)

V1 x7  (Chorus 2)

V2 x1  (Chorus 2)

V1 x6

V1 x4  (Verse 1)

V1 x4  (Chorus 3)

V1 x4+

Comments