Skycamefalling - To Forever Embrace The Sun Chords & Tabs

 

To Forever Embrace The Sun Chords & Tabs

Skycamefalling Chords & Tabs

Version: 1 Type: Tab 0 ratings
1 star 2 stars 3 stars 4 stars 5 stars
comments

To Forever Embrace The Sun Tab

Author/Artist: Skycamefalling    http://www.skycamefalling.com/
Title: To forever embrace the sun
Transcribed by: Andrew Biles

I've tried tabbing out both guitar parts for this song, don't know how
successfull I've been though.  sounded right when I was working it out, but
the song being over 7 minutes long made me get a bit lost.
 Hope you can understand the order of it a bit if you're actually looking at
this.  it's a great instrumental so enjoy.  I think near to the end I may've
missed a couple of bits out though, sounded like there were 3 or 4 guitars in
the song by the end.

-----------------------------------------|------------------------------------
-----------------------------------------|------------------------------------
--------4-------------4--------0---4---2-|-----2------------------------------
-/5-5-5---5-5--/5-5-5---5-5--2---2---2---|-2-2---2-2--------------------------
-----------------------------------------|------------------------------------
-----------------------------------------|------------------------------------
 ^ guitar 1                                ^ not played last time             

------------------------------------------------------------------------------
-12-12-12-12h13p12-12-12h13p12-12-12h13p12-10-10-10--10-10-10--8-8-8--8-8-8---
------------------------------------------------------------------------------
------------------------------------------------------------------------------
------------------------------------------------------------------------------
------------------------------------------------------------------------------
 ^ guitar 2                                                                   

------------------------------------------------------------------------------
-7-7-7--7-7-7--7-7-3-3-3-/5-5-5-/5-5-5-/5-5-5-/5-5-5--------------------------
------------------------------------------------------------------------------
------------------------------------------------------------------------------
------------------------------------------------------------------------------
------------------------------------------------------------------------------
                                                                    

------------------------------------------------------------------------------
------------------------------------------------------------------------------
------------------------------------------------------------------------------
-5-5-5-5-5-5-5-4-4-4-4-4-4-2-2-2-2-2-2-2-2-2-2-2-2-2h4h5----------------------
------------------------------------------------------------------------------
------------------------------------------------------------------------------
 ^ guitar 1                                                         

------------------------------------------------------------------------------
------------------------------------------------------------------------------
-12*---------------x----------------------------------------------------------
-----12*-12*-------12*--------------------------------------------------------
-------------------12*--------------------------------------------------------
------------------------------------------------------------------------------
 ^ guitar 2                                                       

---------------------------------------------------------------0-----0--------
---------------------------0------0-------------------------------------------
-------------------------0------0----------------------------0-----0----------
-5------4------2-------2------2-------5------4------2------2-----2------------
------------------------------------------------------------------------------
------------------------------------------------------------------------------
                                                                    

------------------------------------------------------------------------------
------------------------------------------------------------------------------
-12*---------------x----------------------------------------------------------
-----12*-12*-------12*--------------------------------------------------------
-------------------12*--------------------------------------------------------
------------------------------------------------------------------------------
       

-------0------------0---------------------------------------------------------
---------------------------------0------------0-------------------------------
---0-----0------0-----0------0-----0------0-----0-----------------------------
-5---5-----5--4---4-----4--2---2-----2--2---2-----2---------------------------
------------------------------------------------------------------------------
------------------------------------------------------------------------------
                                                                              

------------------------------------------------------------------------------
---------------------3------3-------------------------------------------------
---7------6------4------------------------------------------------------------
-5------4------2-------2-2----2-2---------------------------------------------
------------------------------------------------------------------------------
------------------------------------------------------------------------------
                                                                              
[ Tab from: http://www.guitartabs.cc/tabs/s/skycamefalling/to_forever_embrace_the_sun_tab.html ]
------------------------------------------------------------------------------
------------------------------------------------------------------------------
------------------------------------------------------------------------------
-12-12-12-12-12-12-10-10-10-10-10-10-9-9-9-9-9-9-9-9-9-9-9-9-9h10h12----------
------------------------------------------------------------------------------
------------------------------------------------------------------------------
 ^ guitar 1                                                                   

------------------------------------------------------------------------------
------------------------------------------------------------------------------
------------------------------------------------------------------------------
-12-12-12-12-12-12-14-14-14-14-14-14-9-9-9-9-9-9-9-9-9-9-9-9-9h10h12----------
------------------------------------------------------------------------------
------------------------------------------------------------------------------
                                                                              

------------------------------------------------------------------------------
------------------------------------------------------------------------------
------------------------------------------------------------------------------
-5-5-5-5-5-5-4-4-4-4-4-4-2-2-2-2-2-2-2-2-2-2-2-2-2h4h5-5-5-2h4h5--------------
------------------------------------------------------------------------------
------------------------------------------------------------------------------
                                                                              

------------------------------------------------------------------------------
-----------------------------------3------3-----------------------------------
---7---7-------6---6-------4---4----------------------------------------------
-5---5-------4---4-------2---2-------2-2----2-2-------------------------------
------------------------------------------------------------------------------
------------------------------------------------------------------------------
 ^ guitar 2                                                                   

--------0-----------0---------------------------------------------------------
--------------------------------0----------0----------------------------------
---7-----------6-----------4----------4---------------------------------------
-5---5-------4---4-------2---2------2---2-------------------------------------
------------------------------------------------------------------------------
------------------------------------------------------------------------------
                                                                              

----0-----0-------------------------------------------------------------------
----------------0-----0-------------------------------------------------------
------------------------------------------------------------------------------
-5-----4-----2-----2----------------------------------------------------------
------------------------------------------------------------------------------
------------------------------------------------------------------------------
                                                                              

------------------------------------------------------------------------------
------------------------------------------------------------------------------
------------------------------------------------------------------------------
-12-12-12-12-12-12-10-10-10-10-10-10-9-9-9-9-9-9-9-9-9-9-9-9-9h10h12----------
------------------------------------------------------------------------------
------------------------------------------------------------------------------
 ^ guitar 1                                                                   

------------------------------------------------------------------------------
------------------------------------------------------------------------------
------------------------------------------------------------------------------
-12-12-12-12-12-12-14-14-14-14-14-14-9-9-9-9-9-9-9-9-9-9-9-9-9h10h12----------
------------------------------------------------------------------------------
------------------------------------------------------------------------------
                                                                              

----0-----0-----0-----0-------------------------------------------------------
------------------------------------------------------------------------------
------------------------------------------------------------------------------
-5-----4-----2-----2----------------------------------------------------------
------------------------------------------------------------------------------
------------------------------------------------------------------------------
 ^ guitar 2                                                                   

------0-------0-------0-------0-----------------------------------------------
----5-------5-------5-------5-------------------------------------------------
--0-------0-------0-------0---------------------------------------------------
------------------------------------------------------------------------------
------------------------------------------------------------------------------
------------------------------------------------------------------------------
                                                                              

------------------------------------------------------------------------------
------------------------------------------------------------------------------
-12-12-12-12-12-12-11-11-11-11-11-11-9-9-9-9-9-9-9-9-9-9-9-9-9-9h10h12--------
------------------------------------------------------------------------------
------------------------------------------------------------------------------
------------------------------------------------------------------------------
 ^ guitar 1                                                                   

------------------------------------------------------------------------------
------------------------------------------------------------------------------
-12-12-12-12-12-12-14-14-14-14-14-14-9-9-9-9-9-9-9-9-9-9-9-9-9-9h10h12--------
------------------------------------------------------------------------------
------------------------------------------------------------------------------
------------------------------------------------------------------------------
Comments