Sky Church - Victim Chords & Tabs

 

Victim Chords & Tabs

Sky Church Chords & Tabs

Version: 1 Type: Tab 0 ratings
1 star 2 stars 3 stars 4 stars 5 stars
comments

Victim Tab

                         "VICTIM" BY SKY CHURCH 
                        transcribed by: freongang   
                   visit me at: freongang_81@yahoo.com
                         freongang_08@yahoo.com

 
   intro:        X6                 X7
e|------  -------------------  --------------------|
B|------  -------------------  --------------------|
G|------  -------------------  --------------------|
D|-4-5--  --------------4-5--  --------------4/5---|
A|-2-3--  -0-0-0-0-0-1--2-3--  -0-0-0-0-0-1--2/3---|
E|------  -------------------  --------------------|

 ways of corruption and lies...  X4
e|--------------------------------|
B|--------------------------------|
G|--------------------------------|
D|-5-5-5-3-3-3-7-7-7--------------|
A|-3-3-3-1-1-1-5-5-5-7-7-7--------|
E|-------------------5-5-5--------|
          X7
e|---------------------------|
B|---------------------------|
G|---------------------------|
D|--------------4/5----------|
A|-0-0-0-0-0-1--2/3----------|
E|---------------------------|
          X4
e|--------------------------------|
B|--------------------------------|
G|--------------------------------|
D|-5-5-5-3-3-3-7-7-7--------------|
A|-3-3-3-1-1-1-5-5-5-7-7-7--------|
E|-------------------5-5-5--------|

 where is justice, fight for justice... X2
e|----------------------------|
B|----7-7-7-7--6-6-6-6--------|
G|----7-7-7-7--6-6-6-6--------|
D|----x-x-x-x--x-x-x-x--------|
A|----5-5-5-5--4-4-4-4--------|
E|----------------------------|
[ Tab from: http://www.guitartabs.cc/tabs/s/sky_church/victim_tab.html ]
  blinded by faith...
e|----------------------------------  ---------------------------|
B|----------------------------------  ---------------------------|
G|----------------------------------  ---------------------------|
D|----------------------------------  -5-5-5-3-3-3-7-7-7---------|
A|-3-3-3-3-1-1-1-1-5-5-5-5----------  -3-3-3-1-1-1-5-5-5-7-7-7-7-|
E|-------------------------5-5-5-5--  -------------------5-5-5-5-|

e|-------------------  --------------------------|
B|-------------------  --------------------------|
G|-------------------  --------------------------|
D|--------------4/5--  -5-5-5-3-3-3-7-7-7--------|
A|-0-0-0-0-0-1--2/3--  -3-3-3-1-1-1-5-5-5-7-7-7--|
E|-------------------  -------------------5-5-5--|

e|----------------------------------------  --------------------------------|
B|----------------------------------------  --------------------------------|
G|----------------------------------------  --------------------------------|
D|-5--5-5-5-5---5-5-5-5---5-5-5-5--4/5--5-  --------------------------------|
A|-5--5-5-5-5---5-5-5-5---5-5-5-5--2/3--5-  -1-1-1-1-0-0-0-0-3-3-3-3--------|
E|-3--3-3-3-3---3-3-3-3---3-3-3-3-------3-  -------------------------3-3-3-3|

e|------------------------  -----------------------|
B|------------------------  -----------------------|
G|------------------------  -----------------------|
D|-------------------4/5--  -----------------------|
A|--5-5-5-5-5-5-5-5--2/3--  -----------------2h3---|
E|--3-3-3-3-3-3-3-3-------  -3-3-3-3-3-3-3-3-------|

e|-------------------------|
B|-------------------------|
G|-------------------------|
D|--9------7-7-------------|
A|--7-9-9--5-5-7-5---------|
E|----7-7------5-3---------|

  outro:
e|-----------------  ------------------------|
B|-----------------  ------------------------|
G|-----------------  ------------------------|
D|--5-5-5--4/5-----  -------------------0-1--|
A|--3-3-3--2/3--5--  -3-3-3-1-1-1-2-2-2------|
E|--------------3--  ------------------------|

     <<<>>> PLAY IT LOUD!!!!
Comments