Sky Church - Delubyo Chords & Tabs

 

Delubyo Chords & Tabs

Sky Church Chords & Tabs

Version: 1 Type: Tab 0 ratings
1 star 2 stars 3 stars 4 stars 5 stars
comments

Delubyo Tab

      
                 "DELUBYO"BY:SKYCHURCH
                transcribed by:freongang
           visit me at:freongang_81@yahoo.com
                 freongang_08@yahoo.com

intro  x8                 then proceed here
Eb|-------------------  ------------------|
Bb|-------------------  ------------------|
Gb|-------------------  ------------------|
Db|---------5----4----  --7h6-5-----------|
Ab|-0-0-0-0-3--0h2----  --------9h7-------|
Eb|-------------------  ------------------|

     Hwaaah!     X4
Eb|-------------------------------------|
Bb|-------------------------------------|
Gb|-------------------------------------|
Db|-5/4--4/5--4/5--7/5------------------|
Ab|-3/2--2/3--2/3--5/3------------------|
Eb|-------------------------------------|

 ang ating panahon ay magulo at madilim... X8
Eb|-------------------------------------|
Bb|-------------------------------------|
Gb|-------------------------------------|
Db|---------5-----4---------------------|
Ab|-0-0-0-0-3---0h2---------------------|
Eb|-------------------------------------|
[ Tab from: http://www.guitartabs.cc/tabs/s/sky_church/delubyo_tab.html ]
 Intensyong kumitil ng buhay... X4
Eb|-------------------------------------|
Bb|-------------------------------------|
Gb|-------------------------------------|
Db|-5/4--4/5--4/5--7/5------------------|
Ab|-3/2--2/3--2/3--5/3------------------|
Eb|-------------------------------------|
 
  Bawat tao...   x4
Eb|-------------------------------------|
Bb|-------------------------------------|
Gb|-------------------------------------|
Db|--9---7---5---4----------------------|
Ab|--7---5---3---2----------------------|
Eb|-------------------------------------|

  Di mo ba alam...  X4
Eb|--------------------------------------------|
Bb|--------------------------------------------|
Gb|--------------------------------------------|
Db|---------5----4---9---7---5----------5----4-|
Ab|-0-0-0-0-3--0h2---7---5---3--0-0-0-0-3--0h2-|
Eb|--------------------------------------------|

  Katapusan na ng mundo...
Eb|---------------------  -------------------------|
Bb|---------------------  -------------------------|
Gb|---------------------  -------------------------|
Db|-5/4--4/5--4/5--7/5--  ---------7-7---------7-7-|
Ab|-3/2--2/3--2/3--5/3--  -0-0-0-0-5-5-0-0-0-0-5-5-|
Eb|---------------------  -------------------------|

 May solusyon sa bawat sakuna...   X4
Eb|---------------------------------------------------------|
Bb|---------------------------------------------------------|
Gb|---------------------------------------------------------|
Db|-5-5-5-5-6---5-5-5-5-6---5-5-5-5-6---7-5-9-7--7-6---10-9-|
Ab|-3-3-3-3-4---3-3-3-3-4---3-3-3-3-4---5-3-7-5------5------|
Eb|---------------------------------------------------------|
Comments