Skunk Anansie - Picking On Me Chords & Tabs

 

Picking On Me Chords & Tabs

Skunk Anansie Chords & Tabs

Version: 3 Type: Tab 0 ratings
1 star 2 stars 3 stars 4 stars 5 stars
comments

Picking On Me Tab

##################################################################################
# This file is the author's own work and represents their interpretation of the  #
# song. You may only use this file for private study, scholarship, or research.  #
##################################################################################

From 960327@ps.aau.dk Sun Apr 27 11:07:33 1997
Date: Fri, 25 Apr 97 17:50:17 cet
From: 960327 
Subject: tab of Picking on me by Skunk Anansie



This is my version of Picking on me by Skunk Anansie, on Stoosh. 
I think it is right.                                                                               

Main Part:
[ Tab from: http://www.guitartabs.cc/tabs/s/skunk_anansie/picking_on_me_tab_ver_3.html ]
E-|--------3p0-------|-------3p0-------|-------3p0-------|---------5p3--------|
B-|------------3p0---|------------3p0--|-----------3p0---|-------------5p3----|
G-|------------------|-----------------|-----------------|--------------------|
D-|------------------|-----------------|-----------------|--------------------|
A-|------------------|-----------------|-3-3-------------|-5-5----------------|
E-|-0-0--------------|-0-0-------------|-----------------|--------------------|
                                                                               
Chorus:
                                                                               
E-|-------5p3--------|---------3p0-----|-------3p0-------|---------3p0--------|
B-|-----------5p3----|-------------3p0-|------------3p0--|-------------3p0----|
G-|------------------|-----------------|-----------------|--------------------|
D-|------------------|-----------------|-----------------|--------------------|
A-|-5-5--------------|-3-3-------------|-----------------|--------------------|
E-|------------------|-----------------|-0-0-------------|-0-0----------------|
                                                                               
End of Chorus:
   
                                                                      harm.
E-|---------5p3------|----------3p0----|-----------------|-------------(12)---|
B-|------------5p3---|-------------3p0-|-----------------|-------------(12)---|
G-|------------------|-----------------|-----------------|-------------(12)---|
D-|------------------|-----------------|-----------0h2---|--------------------|
A-|-5-5--------------|-3-3-------------|------0h3--------|--------------------|
E-|------------------|-----------------|-0h3-----------0-|--------------------|
                                                                              
-----

Comments, etc?

960327@ps.aau.dk

Nikolaj
Comments