Skunk Anansie - Picking On Me Chords & Tabs

 

Picking On Me Chords & Tabs

Skunk Anansie Chords & Tabs

Version: 2 Type: Tab 0 ratings
1 star 2 stars 3 stars 4 stars 5 stars
comments

Picking On Me Tab

#----------------------------------PLEASE NOTE---------------------------------#
#This file is the author's own work and represents their interpretation of the #
#song. You may only use this file for private study, scholarship, or research. #
#------------------------------------------------------------------------------#

From CB@education.uct.ac.za Wed Apr  9 12:51:51 1997
Date: Tue, 1 Apr 1997 15:20:50 SAST-2
From: "Breen, CJ, Chris" 
To: guitar@nevada.edu
Subject: Tab: Pickin' on Me - Skunk Anansie

Song: Pickin' On Me
Band: Skunk Anansie
Album: Stoosh

Here is my version of Pickin' on Me from Stoosh.
 
Verse

E---------2^0------------             ------3^0-------------5^0--------
B---------------0--------             ------------0---------------0----
G------------------0-----             ---------------0--------------0--
D------------------------          X2 ---------------------------------
A------------------------             3-3--------------5-5--------------
E--0-0-------------------              ---------------------------------


Chorus
[ Tab from: http://www.guitartabs.cc/tabs/s/skunk_anansie/picking_on_me_tab_ver_2.html ]
E: -----2^0------------2^0-----------2^0-----------------
B: ----------0---------------0---------------0-----------
G: ------------0---------------0----------------0--------
D: 0-0-----------------------------------------------X2--
A: ---------------3-3------------------------------------
E: ---------------------------------0-0------------------

End of Chorus Riff

E:---------------------------(12)---Harmonics
B:---------------------------(12)-----
G:------------------------------------
D:------------------------------------
A: ------------3--5/7-----------------
E: --0--3--5------------0-------------

Well there it is. Send any more requests for Skunk songs to me.

Cheers
Duncan

**********************************************************************
chris breen                         tel: (021) 650-2757
school of education                 internet: cb@education.uct.ac.za 
university of cape town             pmail: education/cb
rondebosch                          
7700 south africa                   fax: (021) 650-3489
**********************************************************************
Comments