Skunk Anansie - I Can Dream Chords & Tabs

 

I Can Dream Chords & Tabs

Skunk Anansie Chords & Tabs

Version: 2 Type: Bass Tab 0 ratings
1 star 2 stars 3 stars 4 stars 5 stars
comments

I Can Dream Bass Tab

Skunk Anansie - I Can Dream – Bass Tab

Intro

G||--------------------------|
D||--------------------------|      x 1
A||--4---2-------------------|
E||----5----5--4-------------|

Verse

G||----------------------------------|
D||----------------------------------|     x 10
A||------4-----4-----4-----4---2-----|
E||--2-2---2-4---4-5---4-5---5---5-4-|

Pre-chorus

G||--------------------------|
D||--------------------------|     x 2
A||--------------------------|
E||---2-2---3-3---5-5---7-7--|

Chorus

G||--------------------------|--------------------------|
D||--------------------------|--------------------------|     x 2
A||--------------------------|--5--5--5--5--------------|
E||--2--2--2--2--3--3--3--3--|--------------0--0--0--0--|

Verse (only slide up to the 9th fret on 2nd and 6th times)
[ Tab from: http://www.guitartabs.cc/tabs/s/skunk_anansie/i_can_dream_btab_ver_2.html ]
     x 1, 3, 4, 5, 7, 8, 9, 10           x 2 and 6
   ________________________________   ___________________________________
  |                                  |
G||----------------------------------|-----------------------------------|
D||----------------------------------|-----------------------------------|
A||------4-----4-----4-----4---2-----|------4-----4-----4---/9--7--------|   
E||--2-2---2-4---4-5---4-5---5---5-4-|--2-2---2-4---4-5---4/--------9--7-|


Pre-chorus

G||------------------------|
D||------------------------|
A||------------------------|
E||---2-2---3-3--5-5--7-7--|

Chorus

G||--------------------------|--------------------------|
D||--------------------------|--------------------------|     x 4
A||--------------------------|--5--5--5--5--------------|
E||--2--2--2--2--3--3--3--3--|--------------0--0--0--0--|

Bridge (strumming – I think, it may be slap though…)

G||--------------------------------|
D||--------------------------------|    x 8
A||---9-9--10-10--11-11--12-12-----|
E||--------------------------------|

Chorus

G||--------------------------|--------------------------|
D||--------------------------|--------------------------|     x 8
A||--------------------------|--5--5--5--5--------------|
E||--2--2--2--2--3--3--3--3--|--------------0--0--0--0--|

Fade out on fret 2 of the E string….

Tabbed by bass_nutter@hotmail.com
Comments