Skunk Anansie - Hedonism Chords & Tabs

 

Hedonism Chords & Tabs

Skunk Anansie Chords & Tabs

Version: 1 Type: Tab 0 ratings
1 star 2 stars 3 stars 4 stars 5 stars
comments

Hedonism Tab

   
#----------------------------------PLEASE NOTE---------------------------------#
#This file is the author's own work and represents their interpretation of the #
#song. You may only use this file for private study, scholarship, or research. #
#------------------------------------------------------------------------------#
#

Hedonism (Just Because You Feel Good)

Title : Hedonism (Just Because You Feel Good)
Performed by : Skunk Anansie
Version : Allegedly Acoustic Mix
Transcription by : David Msika

The regular version has already been tabbed by someone else, so I decided
to tab the accoustic version of that great song. However, I think the
chords described in the other tabs are not in the same tune than the album,
but it doesn't matter if you don't play over the song. I believe the chords
I'm using are in the right tune.

Intro :

   Fm D#
E --------------------------------|------------------------------
B ------9--9h8-----9--11--11---9--|------8-8---------------------
G -----10-10---10-----10--10--10--|------8-8-----------8h9h8-----
D --------------------------------|---------------8-10-------8---
A -8-8-------------8---8---8---8--|--6-6-----8-10----------------
E --------------------------------|------------------------------
[ Tab from: http://www.guitartabs.cc/tabs/s/skunk_anansie/hedonism_tab.html ]
   FmFm9Fm4 D#      D#9D#4
E --------------------------------|------------------------------
B ------9--9h8-----9--11--11---9--|------8--8h6-----8h9--8-------
G -----10-10---10-----10--10--10--|------8--8-8--8--8-8--8-------
D --------------------------------|------------------------------
A -8-8-------------8---8---8---8--|--6-6-------------------------
E --------------------------------|------------------------------


Play the following tab in loop during the verse parts :

   FmFm9Fm4 D#      D#9D#4
E --------------------------------|------------------------------
B ------9--9h8-----9--11--11---9--|------8--8h6-----8h9--8-------
G -----10-10---10-----10--10--10--|------8--8-8--8--8-8--8-------
D --------------------------------|------------------------------
A -8-8-------------8---8---8---8--|--6-6-------------------------
E --------------------------------|------------------------------

Verse 1

Bridge (Fill in)

    Fm  G#
E --8--8--8--8--8--8--8--8--|--11--11--11--11--11--11--11--11-
B --9--9--9--9--9--9--9--9--|--13--13--13--13--13--13--13--13-
G -10-10-10-10-10-10-10-10--|--13--13--13--13--13--13--13--13-
D --8--8--8--8--8--8--8--8--|--13--13--13--13--13--13--13--13-
A --8--8--8--8--8--8--8--8--|--11--11--11--11--11--11--11--11-
E --8--8--8--8--8--8--8--8--|--11--11--11--11--11--11--11--11-

Chorus

G#D#   A#
Just because you feel good

Fm    G#
Doesn't make you right, oh no

G#D#   A#
Just because you feel good

   Fm     G#
Still want you here tonight

Verse 2
Chorus 
Verse 3
Comments