Skunk Anansie - Cheap Honesty Chords & Tabs

 

Cheap Honesty Chords & Tabs

Skunk Anansie Chords & Tabs

Version: 1 Type: Bass Tab 0 ratings
1 star 2 stars 3 stars 4 stars 5 stars
comments

Cheap Honesty Bass Tab

   
Song: Cheap Honesty
Band: Skunk Anansie
Album: Post orgasmic chill
Tabbed by MrGentlman@aol.com 



Standart Tuning (E,A,D,G)


Riff 1 (verse part 1)

G|-------------------------------------------------------------
D|--16---------16---------------16----------16-----------------
A|-----15-14------15-14-/12-14-----15-14-------15-14-/12-14----
E|-------------------------------------------------------------

G|-----------------------------|
D|---16---------16-------------| 
A|------15-14------15-14-/(12)-|
E|-----------------------------|


Riff 2 (verse part 2)

G|-----------------------------------------------------------------------|
D|---------10------------8--------------------11-------------10----------|
A|------10----10-------8---8---------------11----11-------10----10-------|
E|--8-8------------6-6--------5---5-7-10-10-----------8-8------------6---|


Riff 3 (chorus part 1)

G|------------------------------------------------|
D|------------------------------------------------|
A|------------------------------------------------|
E|-6-6-6-6-6---3-3-3-3-3--/10-10-10-10-10---6--9/-|



Riff 4 (chorus part 2)
[ Tab from: http://www.guitartabs.cc/tabs/s/skunk_anansie/cheap_honesty_btab.html ]
G|----------------------------------------------------------|
D|----------------------------------------------------------| 
A|----------------------------------------------------------|
E|-6-6-6-6-6---3-3-3-3-3--/10-10-10-10-10---8-8-8-8-5-5-5-5-|


Play Riff 3 and 4 by turns!!!


Riff 5 (bridge)

G|------------------------------------------------|
D|-----------------------1---0--1--0--1-1-0-1-1-3-| Repeat 3x
A|-----------5-5-5-5-5-5--------------------------|
E|-3--3--3-3--------------------------------------|

Play then 1x

G|---------------------------------------------------------|
D|---------------------------------------------------------|
A|-5-5-5-5-5-5-5-3-3-3-3-3-3-3-1-1-1-1-1-1-1-1-1-1-1-1-1-1-|
E|---------------------------------------------------------|


At the end of the Song there are many fill ins in the 3rd Riff.
I´m to lazy to tab them all, so here is just one of these fill ins:

G|----------------------------------------------------------------|
D|-------------------------------------12-10----------------------|
A|-------------------------------10-12-------12-10----------------|
E|-6-6-6-6-6---3-3-3-3-3/--10-12-------------------8-8-8-8-5-5-5-5|


have fun!

Any Questions? - (Mail Me: MrGentlman@aol.com)

Comments