Skrillex - Scary Monsters And Nice Sprites Chords & Tabs

 

Scary Monsters And Nice Sprites Chords & Tabs

Skrillex Chords & Tabs

Version: 10 Type: Tab 0 ratings
1 star 2 stars 3 stars 4 stars 5 stars
comments

Scary Monsters And Nice Sprites Tab

Scary monsters and nice sprites


----------------10p---8--------|
-8------8--11------------11--8-|
----10-------------------------|
-------------------------------|
-------------------------------|
-------------------------------|
[ Tab from: http://www.guitartabs.cc/tabs/s/skrillex/scary_monsters_and_nice_sprites_tab_ver_10.html ]
-----------------------------------------------------------------|
-----------------------------------------------------------------|
---------10--8--7-----8--10--------------7-----------------------|
-----8-------------10---------8-------8--------------------------|
-10-------------------------------10-----------------------------|
-----------------------------------------------------------------|

-15-------------13------------|
----15-------------15---------|
-------15------------15-------|
----------17------------17----|
------------------------------|
------------------------------|
Comments