Skrillex - Ruffneck Bass Chords & Tabs

 

Ruffneck Bass Chords & Tabs

Skrillex Chords & Tabs

Version: 2 Type: Tab 0 ratings
1 star 2 stars 3 stars 4 stars 5 stars
comments

Ruffneck Bass Tab

This is for the original version, linked below;
http://www.youtube.com/watch?v=1zgHeHRUHV8

This tab is for the lead 'guitar' of the song...

You'll know what I mean...

[ Tab from: http://www.guitartabs.cc/tabs/s/skrillex/ruffneck_bass_tab_ver_2.html ]
Wait for the drop...
e|-----------------------------------------------------------------|
B|-----------------------------------------------------------------|
G|-----------------------------------------------------------------|
D|7-8-8-10-8-8-7-7-----------------6-7-7-6-8-8-7-7-----------------|
A|-----------------------------------------------------------------|
E|-----------------------------------------------------------------|

e|------------------------------------------------------------------------------------|
B|------------------------------------------------------------------------------------|
G|--------10---10---10-9--------------------------------------------------------------|
D|-----------------------11---11---11---10-11-9-10-8-9-7-8----------------------------|
A|8---8----------------------------------------------------8-8-8-8---8-8-8-88888888---|
E|------------------------------------------------------------------------------------|

And there it is! Kudos to Skrillex for the epic song!
Comments