Skrillex - Bangarang Chords & Tabs

 

Bangarang Chords & Tabs

Skrillex Chords & Tabs

Version: 1 Type: Bass Tab 0 ratings
1 star 2 stars 3 stars 4 stars 5 stars
comments

Bangarang Bass Tab

Sup folks :) Please check my Bass tutorial video on YouTube for this tune.

Here's the link... http://www.youtube.com/watch?v=s2BgW9Kutxo

Hopefully it will help you out more on how to play this song :) 

comment, Rate, Enjoy :) AJ

Intro
|----------------------------------------------------------|
|--------8--------------8--------------8--------------8----|
|-x-8h10---10----x-8h10---10----x-8h10---10----x-8h10---10-|
|----------------------------------------------------------|

|--------------------------------------------------|
|--------------------------------------------------|
|-------1------------1------------1------------1---| x3
|-x-1h3---3----x-1h3---3----x-1h3---3----x-1h3---3-|

|----------------------------------------------------|
|----------------------------------------------------|
|-10-10-10-10-10-10-10-10-10-10-10-10-10-10-10-10-10-|
|----------------------------------------------------|

Chorus
|---------------------------------------3-x---|
|-------5-5-5------------------------5------5-|
|-----------------3\1-------------------------|
|-3-x-x-------x-x------3-3-3-3-3-3-3----------|

|-----------------------------------------------|
|-------5-5-5------------------------5------3h5-|
|-----------------3\1-------------------3h5-----| x2 both riffs
|-3-x-x-------x-x------3-3-3-3-3-3-3------------|


Riff 1                           Fill
|-----------------------------| |-12-x-12-x-|
|------8-10--12/13\12-----8---| |-12-x-12-x-||5-
|-10-------------------10---x-| |-10-x-10-x-|
|-----------------------------| |-----------|

2nd chorus 
|-------------12\-----12\--------------12--17b-|
|-5-5---5------------------5-5---5-------------|
|----------------------------------------------|
|-----3---x-x-----x-x----------3---x-x---------|
[ Tab from: http://www.guitartabs.cc/tabs/s/skrillex/bangarang_btab.html ]
|-------------12\-----12\----------------|
|-5-5---5------------------5---------3h5-|
|--------------------------------3h5-----|
|-----3---x-x-----x-x--------0h3---------|

3rd chorus 
|----------------------x--12------------------------x--17b-|
|-5------5--------------------5-------5--------------------|
|----------------------------------------------------------|
|---0h3----0-(-x-LH)-x----------0h3-----0-(-x-LH)-x--------|

|----------------------x--12----------------|
|-5------5--------------------5---------3h5-|
|-----------------------------------3h5-----|
|---0h3----0-(-x-LH)-x----------0h3---------|

bridge 
|---------------------------------------------------------------------------|
|-----------------------------------------------------------3555555555555555|
|66666666666666-6-5----------------------33333333333333-3h5-----------------|
|-------------------6-333333333333-3-4-6------------------------------------|

Fill
|-12-x-12-x-|
|-12-x-12-x-|
|-10-x-10-x-|
|-----------|

Fill
|-----------------------| |--------|
|-----------------------| |-8-x----|
|-----1-3--5/6\5----1---| |-----10-|
|-3---------------3---x-| |--------|

3rd chorus 
|-------------12\-----12\--------------12--17b-|
|-5-5---5------------------5-5---5-------------|
|----------------------------------------------|
|-----3---x-x-----x-x----------3---x-x---------|

|-------------12\-----12\----------------|
|-5-5---5------------------5---------3h5-|
|--------------------------------3h5-----|
|-----3---x-x-----x-x--------0h3---------|

|---------------------------------------3-x---|
|-------5-5-5------------------------5------5-|
|-----------------3\1-------------------------|
|-3-x-x-------x-x------3-3-3-3-3-3-3----------|

|-----------------------------------------------|
|-------5-5-5------------------------5------3h5-|
|-----------------3\1-------------------3h5-----| x2 both riffs
|-3-x-x-------x-x------3-3-3-3-3-3-3------------|
Comments