Skinlab - Ten Seconds Chords & Tabs

 

Ten Seconds Chords & Tabs

Skinlab Chords & Tabs

Version: 1 Type: Tab 0 ratings
1 star 2 stars 3 stars 4 stars 5 stars
comments

Ten Seconds Tab

   
Song: Skinlab - Ten Seconds
Album: Gagged, Bound, and Blindfolded
Tabbed by: Nate Parker

I tried to tab this so you can follow the whole song, hope its not confusing with two
guitars! Im not sure on the strumming cuz I haven't seen these guys live. So I hope
this is right, It sounds it!!!!

Tuning:(both guitars)Drop C (c-g-C-f-a-d) Low to high.

Guitar 1:
D|----------------|----------------|----------------|----------------|
A|----------------|----------------|----------------|----------------|
F|-----------2----|-----------2----|-----------2----|-----------2----|
C|-------3--------|-------3--------|-------3--------|-------3--------|
G|-------------3--|-------------3--|-------------3--|-------------3--|
C|1-111----1------|1-111----1------|0-000----0------|0-000----0------|
(4x)

Guitar 2:
D|----------------|----------------|----------------|----------------|
A|----------------|----------------|----------------|----------------|
F|----------------|----------------|----------------|----------------|
C|1-11111-11111111|1-11111-11111111|0-00000-00000000|0-00000-00000000|
G|1-11111-11111111|1-1111111111111|0-00000-00000000|0-00000-00000000|
C|1-11111-11111111|1-1111111111111|0-00000-00000000|0-00000-00000000|
(4x)

Guitar 1:
D|----------------|----------------|----------------|----------------|
A|----------------|----------------|----------------|----------------|
F|8-88888-88888888|8-88888-88888888|7-77777-77777777|7-77777-77777777|
C|----------------|----------------|----------------|----------------|
G|6-66666-66666666|6-66666-66666666|5-55555-55555555|5-55555-55555555|
C|----------------|----------------|----------------|----------------|
(4x)

Guitar 2:
D|----------------|----------------|----------------|----------------|
A|----------------|----------------|----------------|--9b------------|
F|8-88888-88888888|8-88888-88888888|7-77777-77777777|7--------------7|
C|----------------|----------------|----------------|----------------|
G|6-66666-66666666|6-66666-66666666|5-55555-55555555|5--------------5|
C|----------------|----------------|----------------|----------------|
(4x)

Guitar 1:
D|----------------|----------------|----------------|----------------|
A|----------------|----------------|----------------|----------------|
F|8-88888-88888888|8-88888-88888888|7-77777-77777777|7-77777-77777777|
C|----------------|----------------|----------------|----------------|
G|6-66666-66666666|6-66666-66666666|5-55555-55555555|5-55555-55555555|
C|----------------|----------------|----------------|----------------|
(4x)

Guitar 2:
D|------|------|
A|------|------|
F|------|------|
C|13-12-|13\\--|<---before the chorus
G|13-12-|13\\--|
C|13-12-|13\\--|
Use the same strumming as the intro using those two chords. 
(4x)

Chorus:
Both Guitars:
D|-------------------|
A|-------------------|
F|-------------------|
C|0-3-2--8---2--6-1-|
G|0--3-2--8---2--6-1-|
C|0--3-2--8---2--6-1-|
(4x)

Both Guitars: {just guitar 1} [just guitar 2]
D|------------------| D|------------------| D|-----------------------|
A|------------------| A|------------------| A|-----------------------|
F|------------------| F|------------------| F|-----------------------|
C|0-0-01-0-0--------| C|0-0-01-0-0[2-2]-| C|0-0-01-0-0-{3333333333}|<---Pinched harmonics
G|0-0-01-0-0--------| G|0-0-01-0-0-[2-2]-| G|0-0-01-0-0-[2-2]------|
C|0-0-01-0-0--------| C|0-0-01-0-0-[2-2]-| C|0-0-01-0-0-[2-2]------|
                       (2x)                  (3x)
[ Tab from: http://www.guitartabs.cc/tabs/s/skinlab/ten_seconds_tab.html ]
D|-------------------| D|-------------------|
A|-------------------| A|-------------------|
F|-------------------| F|------------9b-----|
C|0-0-01-0-0-[2-2]--| C|0-0-01-0-0---------|
G|0-0-01-0-0-[2-2]--| G|0-0-01-0-0---------|
C|0-0-01-0-0-[2-2]--| C|0-0-01-0-0---------|


Both Guitars:
D|---------------------|----------------------|
A|---------------------|----------------------|
F|---------------------|----------------------|
C|0-00-1-00-31-0-1-0-3-|0-00-1-00-21-0-10-0-3-|
G|0-00-1-00-31-0-1-0-3-|0-00-1-00-21-0-10-0-3-|
C|0-00-1-00-31-0-1-0-3-|0-00-1-00-21-0-10-0-3-|
(4x)pm| |pm|             |pm| |pm| 

Chorus:
Both Guitars:
D|-------------------|
A|-------------------|
F|-------------------|
C|0-3-2--8---2--6-1-|
G|0--3-2--8---2--6-1-|
C|0--3-2--8---2--6-1-|
(4x)

Both Guitars: {just guitar 1} [just guitar 2]
D|------------------| D|------------------| D|-----------------------|
A|------------------| A|------------------| A|-----------------------|
F|------------------| F|------------------| F|-----------------------|
C|0-0-01-0-0--------| C|0-0-01-0-0[2-2]-| C|0-0-01-0-0-{3333333333}|<----Pinched Harmonics
G|0-0-01-0-0--------| G|0-0-01-0-0-[2-2]-| G|0-0-01-0-0-[2-2]------|
C|0-0-01-0-0--------| C|0-0-01-0-0-[2-2]-| C|0-0-01-0-0-[2-2]------|
                       (2x)                  (3x)

D|-------------------| D|-------------------|
A|-------------------| A|-------------------|
F|-------------------| F|------------9b-----|
C|0-0-01-0-0-[2-2]--| C|0-0-01-0-0---------|
G|0-0-01-0-0-[2-2]--| G|0-0-01-0-0---------|
C|0-0-01-0-0-[2-2]--| C|0-0-01-0-0---------|

Both Guitars:
D|---------------------|----------------------|
A|---------------------|----------------------|
F|---------------------|----------------------|
C|0-00-1-00-31-0-1-0-3-|0-00-1-00-21-0-10-0-3-|
G|0-00-1-00-31-0-1-0-3-|0-00-1-00-21-0-10-0-3-|
C|0-00-1-00-31-0-1-0-3-|0-00-1-00-21-0-10-0-3-|
(4x)pm| |pm|             |pm| |pm| 

Guitar 1:
D|----------------|----------------|----------------|----------------|
A|----------------|----------------|----------------|----------------|
F|8-88888-88888888|8-88888-88888888|7-77777-77777777|7-77777-77777777|
C|----------------|----------------|----------------|----------------|
G|6-66666-66666666|6-66666-66666666|5-55555-55555555|5-55555-55555555|
C|----------------|----------------|----------------|----------------|
(4x)

Guitar 2:
D|----------------|----------------|----------------|----------------|
A|----------------|----------------|----------------|--9b------------|
F|8-88888-88888888|8-88888-88888888|7-77777-77777777|7--------------7|
C|----------------|----------------|----------------|----------------|
G|6-66666-66666666|6-66666-66666666|5-55555-55555555|5--------------5|
C|----------------|----------------|----------------|----------------|
(4x)

Guitar 1:
D|----------------|----------------|----------------|----------------|
A|----------------|----------------|----------------|----------------|
F|8-88888-88888888|8-88888-88888888|7-77777-77777777|7-77777-77777777|
C|----------------|----------------|----------------|----------------|
G|6-66666-66666666|6-66666-66666666|5-55555-55555555|5-55555-55555555|
C|----------------|----------------|----------------|----------------|
(4x)

Guitar 2:
D|------|------|
A|------|------|
F|------|------|
C|13-12-|13\\--|<---before the chorus
G|13-12-|13\\--|
C|13-12-|13\\--|
Use the same strumming as the intro using those two chords. 
(4x)

Both Guitars:
D|-------------------|
A|-------------------|
F|-------------------|
C|0-3-2--8---2--6-1-|
G|0--3-2--8---2--6-1-|
C|0--3-2--8---2--6-1-|
Let the last note ring, and that's it.
Comments