Skinlab - Scapegoat Chords & Tabs

 

Scapegoat Chords & Tabs

Skinlab Chords & Tabs

Version: 3 Type: Tab 0 ratings
1 star 2 stars 3 stars 4 stars 5 stars
comments

Scapegoat Tab

Skinlab - Scapegoat

Tabbed by ColdClown

Tuning - CGCFAD

Intro/Verses

D|-------------------------------------------------|
A|-------------------------------------------------|
F|-------------------------------------------------|
C|--5-5-3-5-5-3-5-3-6-6-3-6-6-3-6-3----------------|
G|-------------------------------------------------|
C|-------------------------------------------------|

Chorus
[ Tab from: http://www.guitartabs.cc/tabs/s/skinlab/scapegoat_tab_ver_3.html ]
D|-------------------------------------------------|
A|-------------------------------------------------|
F|-------------------------------------------------|
C|--5-5-3-5-5-3-5-3-6-6-3-6-6-3-6-3----------------|
G|--5-5-3-5-5-3-5-3-6-6-3-6-6-3-6-3----------------|
C|--5-5-3-5-5-3-5-3-6-6-3-6-6-3-6-3----------------|

(Sorry, dont know solo!) Improvise!!!!
Its over some other chords, play around with the
verse chords?

Ending

D|--------------------------------------------|-----|
A|--------------------------------------------|-----|
F|--------------------------------------------|-----|
C|---5-5-5-5-5-5-5-5-5-5---6-6-6-6-6-6-6-6-6--|--5--|
G|---5-5-5-5-5-5-5-5-5-5---6-6-6-6-6-6-6-6-6--|--5--|
C|---5-5-5-5-5-5-5-5-5-5---6-6-6-6-6-6-6-6-6--|--5--|
					 End on this
Comments