Skillet - You Take My Rights Away Chords & Tabs

 

You Take My Rights Away Chords & Tabs

Skillet Chords & Tabs

Version: 1 Type: Bass Tab 0 ratings
1 star 2 stars 3 stars 4 stars 5 stars
comments

You Take My Rights Away Bass Tab

Artist: Skillet
Album: Invincible
Song: You take my rights away
Tabbed by: Kelly
walkin_with_jesus@juno.com
	
figure1
G--------------------------------------------------------------
D-------------------4-4-4-4-4-4-4-4-4--------------------------
A-6-6-6-6-6-6-6-6-6-------------------4-4-4-4-4-4-4-4-4--------
E--------------------------------------------------------------

G----------------------|
D----------------------|
A----------------------|
E-7-7-7-7-7-7-7-7-7-7--|
[ Tab from: http://www.guitartabs.cc/tabs/s/skillet/you_take_my_rights_away_btab.html ]
figure2
G-----------------------------------------------------------------|
D-------------------4-4-4-4-4-4-4-4-4-----------------------------|
A-6-6-6-6-6-6-6-6-6-------------------4-4-4-4-4-4-4-4-4-----------|
E--------------------------------------------------------6-6--6-6-|

figure 3 X12
G--------------|
D--------------|
A--------------|
E-4-4--4--4-4--|

"you take my rights away"
figure 4
G--------------------------------------|
D--------------------------------------|
A-4-4-4-4-4-4-4-4-4--------------------|
E-------------------7-7-7-7-7-7-7-7-7--|

figure 2
figure 1
figure 2
figure 3 X6
figure 4
figure 2
figure 1
figure 2

figure 5 X8 
G------|
D------|
A------|
E-6-6--|

figure 3 X4
figure 1
figure 2
figure 1
figure 2
figure 1
figure 2
figure 5

Comments