Skillet - Suspension In You Chords & Tabs

 

Suspension In You Chords & Tabs

Skillet Chords & Tabs

Version: 1 Type: Bass Tab 0 ratings
1 star 2 stars 3 stars 4 stars 5 stars
comments

Suspension In You Bass Tab

   
"Suspension In You"
by Skillet
(c) 1998 Photon Music (BMI)
Tabbed by Toonman (bass4jesus@aol.com)

Intro:
A-0-0-0---0-0-----0-0-0---0-0-----|

Verse:
A-------------------------2-2-2b4-------------------------2--6-----
E-2-2-2-2-2-2-2-2-0-0-0-0---------2-2-2-2-2-2-2-2-0-0-0-0---4--4---
 (Palm Mute)
                                               (2x)
A-------------------------2-2-2-2-0-0-0-0-0-0-0-0-|
E-2-2-2-2-2-2-2-2-0-0-0-0-------------------------|
[ Tab from: http://www.guitartabs.cc/tabs/s/skillet/suspension_in_you_btab.html ]
Chorus:
D---------------1-2---2-2-2-4-2-1---------------------------------
A-2---2-1-2-1-2-------------------2---2-2-2-4-2-1-----------------
E-------------------------------------------------4-4-4-4-3-3-2-2-

D---------------1-2---2-2-2-4-2-1---------------------------------|
A-2---2-1-2-1-2---------------------0-0-0---0-0-----0-0-0---0-0---|
E-----------------------------------------------------------------|

(Repeat Verse)
(Repeat Chorus 2x)

(Repeat Verse)

A-2-4-2-4-2-4-2-4-|

(Repeat Chorus 3x)

Comments