Skillet - Savior Chords & Tabs

 

Savior Chords & Tabs

Skillet Chords & Tabs

Version: 1 Type: Tab 0 ratings
1 star 2 stars 3 stars 4 stars 5 stars
comments

Savior Tab

Skillet
"Savior"

Haley-drmmrsgirl@aol.com

Tuning: Drop C (CGCFAD)

Intro(Right after acoustic intro)

(Volume Swell)
D ------------------------------------
A ------------------------------------
F ---------------5-5---------------5-5-  
C --2-2-2-2-2-2--5-5--2-2-2-2-2-2--5-5-
G --2-2-2-2-2-2--3-3--2-2-2-2-2-2--3-3- 
C --2-2-2-2-2-2------2-2-2-2-2-2------

Verse (Acoustic guitar: Sorry no tab for it)

Pre Chorus: PM=Palm Mute

D ----------------------------
A ----------------------------
F ----------------------------
C -2-2-2-2--2-2--2-2-2-2--2-2-
G -2-2-2-2--2-2--2-2-2-2--2-2-
C -2-2-2-2--2-2--2-2-2-2--2-2-
 PM.......       .......

Chorus

D -----------------------------------------------
A -----------------------------------------------
F --------------7-7--3-3-------------------------   
C -2-2--2-2--2--7-7--3-3--2-2--2-2--2--5-5--4-4--
G -2-2--2-2--2--5-5--5-5--2-2--2-2--2--5-5--4-4--
C -2-2--2-2--2------------2-2--2-2--2--5-5--4-4--

1st Interlude 
[ Tab from: http://www.guitartabs.cc/tabs/s/skillet/savior_tab.html ]
D --------------------------
A --------------------------
F --------------------------
C -2------------------------
G -2-(Palm muted) (Then play intro)
C -2------------------------

2nd Interlude

D -------------------------------
A -------------------------6p5h6- x2
F --7-7--5-5-5--7-7--5-5-5-------
C --7-7--5-5-5--7-7--5-5-5-------
G --5-5--3-3-3--5-5--3-3-3-------

3rd Interlude
C ----------------------------------------------------------------------------
D ------------------------------2nd Guitar----9h11-9h11-9h11-9h11-9h13--------
A ------------------------------------------------------^---------------------
F ------------------------------------------------------^---------------------
C -2-2--4-4--5-5--7-7-7-7-<<<<<<<<<<<<<<<<<<<<(throughout this)---------------
G -2-2--4-4--5-5--7-7-7-7-----------------------------------------------------
C -2-2--4-4--5-5--7-7-7-7-----------------------------------------------------

Ending

D ----------------------
A ----------------------
F ----------------------
C -2-2-2--2-2-2--2-2----
G -2-2-2--2-2-2--2-2----
C -2-2-2--2-2-2--2-2----

***Song Structure***

Acoustic Intro
Intro x2
Verse
Pre-chorus
Chorus x2
Intro x2
Verse
Pre-chorus
Chorus x4
1st interlude x2
2nd interlude x2
3rd interlude x4
Acoustic Chorus
Chorus x4
Intro 
Ending
Comments