Skillet - One Real Thing Chords & Tabs

 

One Real Thing Chords & Tabs

Skillet Chords & Tabs

Version: 1 Type: Tab 0 ratings
1 star 2 stars 3 stars 4 stars 5 stars
comments

One Real Thing Tab

ok this is my first tab so dont be mad if it isnt perfect.


E----------------------------------------------------------------

B--7----7-----8---8----5---5---5-5---5---------7---7-----8---8----

G----7----7-----7---7----7---7-----7---7---------7---7----7----7-

D----------------------------------------------------------------

A----------------------------------------------------------------
[ Tab from: http://www.guitartabs.cc/tabs/s/skillet/one_real_thing_tab.html ]
E-----------------------------------------------------------------




E---5----5---5-----12---7-----------------------------------------

B-----7----7---7----------7--------------------------------------

G----------------------------------------------------------------

D----------------------------------------------------------------

A----------------------------------------------------------------

E-----------------------------------------------------------------
Comments