Skillet - My Obsession Chords & Tabs

 

My Obsession Chords & Tabs

Skillet Chords & Tabs

Version: 1 Type: Tab 0 ratings
1 star 2 stars 3 stars 4 stars 5 stars
comments

My Obsession Tab

Skillet
My Obsession

Skillet kicks lotsa bum with this cd! i luv it! this song is in drop C#
like most of their songs seem to be, but after u get the annoying tuning
outta the way its plenty of fun to play.

Intro/Fill 1 
D#--------------------------------------------------------------------
A#--------------------------------------------------------------------
F#--------------------------------10-------------------------------9--
C#----0---8p7---0---8p7---00---00-----0---8p7---0---8p7---00---00-----
G#----0---8p7---0---8p7---00---00-----0---8p7---0---8p7---00---00-----
C#----0---8p7---0---8p7---00---00-----0---8p7---0---8p7---00---00-----

Verse
D#--------------------------------------------------------------------
A#--------------------------------------------------------------------
F#--------------------------------------------------------------------
C#----0--0--0-------0--0--0-------0--0--0------------00-00-00-0000----
G#----0--0--0--5p3--0--0--0--5p3--0--0--0-----5p3----00-00-00-0000----
C#----0--0--0-------0--0--0-------0--0--0------------00-00-00-0000----
      PM.....       .......       .......            ........   ..
Pre-Chorus
D#--------------------------------------------------------------------
A#--------------------------------------------------------------------
F#--------------------------------------------------------------------
C#----5-5-5-555------8-8-8-888------0-0-0-000------3-3-3-333----------
G#----5-5-5-555------8-8-8-888------0-0-0-000------3-3-3-333----------
C#----5-5-5-555------8-8-8-888------0-0-0-000------3-3-3-333----------
[ Tab from: http://www.guitartabs.cc/tabs/s/skillet/my_obsession_tab.html ]
Chorus
D#--------------------------------------------------------------------
A#--------------------------------------------------------------------
F#--------------------------------------------------------------------
C#----0--00--8-8--0--00--8-10--0--00--8-8---55555---888888------------
G#----0--00--8-8--0--00--8-10--0--00--8-8---55555---888888------------
C#----0--00--8-8--0--00--8-10--0--00--8-8---55555---888888------------

Fill 2
D#--------------------------------------------------------------------
A#--------------------------------------------------------------------
F#--------------------------------------------------------------------
C#----0--0--3--3--0--0--3--3--0-----0--0--3--3--0--0--3--3--0---------
G#----0--0--3--3--0--0--3--3--0-----0--0--3--3--0--0--3--3--0---------
C#----0--0--3--3--0--0--3--3--0-----0--0--3--3--0--0--3--3--0---------
     PM........................................................
Bridge part 1
G#--------------------------------8-----------------------------7-----
C#----0-7-8-7-0-8-7-0-8-7-0-8-7-0---0-7-8-7-0-8-7-0-8-7-0-8-7-0-------
     PM..........................   ...........................
Bridge part 2 (probably the coolest part in the song)
D#--------------------------------------------------------------------------
A#--------------------------------------------------------------------------
F#----------------------------------55-7-------------------------------5XXX-
C#----5h7-0-3h5-3-33-5--5h7-0-3h5-3-55-7-5h7-0-3h5-3-33-5--5h7-0-3h5-3-5XXX-
G#----5h7-0-3h5-3-33-5--5h7-0-3h5-3-33-5-5h7-0-3h5-3-33-5--5h7-0-3h5-3-3XXX-
C#----5h7-0-3h5-3-33-5--5h7-0-3h5-3------5h7-0-3h5-3-33-5--5h7-0-3h5-3------

The breakdown
Intro/fill 1  x4
Verse         x4
Pre-chorus    x1.5 haha
Chorus        x2
Intro/fill 1  x2
Verse         x4
Pre-chorus    x1.5
Chorus        x2
Fill 2        x2
Bridge 1      x4
Bridge 2      x4
Pre-chorus    x3.5
Fill 2        x1
Chorus        x4
Intro/fill 1  x4

--------------------------------------------------------------------------------
Comments