Skillet - Angels Fall Down Chords & Tabs

 

Angels Fall Down Chords & Tabs

Skillet Chords & Tabs

Version: 1 Type: Chords 0 ratings
1 star 2 stars 3 stars 4 stars 5 stars
comments

Angels Fall Down Chords

   
Angels Fall Down
Skillet

Haley-drmmrsgirl@aol.com

Verse 1:

F#m Bm G   

G D DMaj7

G D DMaj7

F#m Bm G

Chorus:

A Bm

Em F#m G

A Bm

Em F#m G

Verse 2:

G D DMaj7

G D DMaj7

F#m Bm G


Chorus:

G D DMaj7

G D DMaj7

F#m Bm G


Verse 3:

A Bm

Em F#m G

A Bm

Em F#m G

[ Tab from: http://www.guitartabs.cc/tabs/s/skillet/angels_fall_down_crd.html ]
Gtr I   Riff A     (think power chords)
  D              A                 Em            G     F#  
e------------|-----------------|--------------|------------------|
b------------|-----------------|--------------|------------------|
g---7---7h9--|------7-----7h9--|-----9---9h11-|------12----11----|
d------------|-----------------|--------------|------------------|
a-5---5------|---0-----0-------|---7---7------|--10----10--------|
e------------|-----------------|--------------|------------------|  
(x 6,continue, joined by Gtr 2 w/ Riff B)


Gtr 2   Riff B
e--------------------------------------------------
b--7----5----7---15-14--15--10-12--3--15-----------
g--------------------------------------------------

e--------------------------------------------------
b--7----5----7---15-14--22--10-12--3/long slide/15-
g--------------------------------------------------

Gtr 3   Riff C
  (pm strum---------------------------------->)
e----------------------------------------------------
b----------------------------------------------------
g--7------------9-------------------------12---------
d--7------------9------------9------------12---------
a--5------------7------------9------------10---------
e----------------------------7-----------------------

Orchestration:  Riff A (x6) (continues)
                Riff B (continues)
                
                "yeah... "
                Riff C (together with A, B in background)
                


Chord Chart:

e--3---2---2-----0----2------
b--0---3---2-----0----2------
g--0---2---2-----0----2---2--
d--0---0---0-----2----4---2--
a--2-------------2----4---0--
e--3-------------0----2------
   G   D  DMaj7  Em  F#m  A
Comments