Skid Row - Thick Is The Skin Chords & Tabs

 

Thick Is The Skin Chords & Tabs

Skid Row Chords & Tabs

Version: 1 Type: Tab 0 ratings
1 star 2 stars 3 stars 4 stars 5 stars
comments

Thick Is The Skin Tab

   
Skid Row - Thick is the Skin
Tabbed By: Matt Courte
shortsleeves@hotmail.com 

Eb Ab Db Gb Bb Eb

Main Riff
/--------------x4----------------\

|--------------------------------|
|--------------------------------|
|--------------------------------|
|----------------------------4-2-|
|-2-3-4--2-3-4--2-3-4--2-3-4-2-0-| 2nd guitar holds Ab5 chord
|-0-1-2--0-1-2--0-1-2--0-1-2-----|

Verse
/-----x4-------\

|--------------|
|--------------|
|--------------|
|--------------|
|-4-4--2--4-4-| after 2nd repeat Eb and Bb 5th fret harmonics
|-2-2---0--2-2-|

(Main Riff)

(Verse)
[ Tab from: http://www.guitartabs.cc/tabs/s/skid_row/thick_is_the_skin_tab.html ]
Pre-Chorus
              x2       x3
|--------------|--------|---|
|--------------|--------|---|
|---11-9-7---7-|-10-9-7-|-9-|
|-9--------9---|--------|---|Guitar 1
|--------------|--------|---|
|--------------|--------|---|
|
|--------------|--------------|--------|--------|--------|this shows repeat
|                                                        |part timing (the
|--------------------------------------------------------|lone 9 is after 
|--------------------------------------------------------|rhythm ends)
|--------------------------------------------------------|
|--------------------------------------------------------|Guitar 2
|-9-9-9-9-9-12-12-12-12-12-10-10-10-10-10-14-14-14-14-14-|
|-7-7-7-7-7-10-10-10-10-10-8--8--8--8--8--12-12-12-12-12-|
(Hit each chord about 16 times fast)

Chorus
             x3
|-------------|---------|
|-------------|---------|
|-------------|---------|
|-------------|---------|
|-------5---7-|-8-8-8-7-|
|-0-0-0-3-0-5-|-6-6-6-5-|

             x3
|-------------|----------------------|
|-------------|----------------------|
|-------------|----------------------|
|-------------|----------------------|
|-------5---7-|-8-8-8-8-8--7-7-7-7-7-|
|-0-0-0-3-0-5-|-6-6-6-6-6--5-5-5-5-5-|

(Main Riff)

(Verse)

(Pre-Chorus)

(Chorus)


Bridge
                         X4
|-------------------------|
|-------------------------|
|-------------------------|
|-------3-2-2-------4-5-5-|
|-2-4-3-1-0-0-2-4-3-2-3-3-|
|-0-2-1-------0-2-1-------|

Solo Rhythm
                                   X2
|-----------------------------------|-------------------|-------|
|-----------------------------------|-------------------|-------|
|-----------------------------------|-------------------|-------|
|-4-2-------------------------------|-4-2-7777-55555555-|-4-5-7-|Guitar 2
|-2-0-x-xxx-xx-xxxxx-x-xxx-xx-xxxxx-|-2-0-5555-33333333-|-2-3-5-|
|-----x-xxx-xx-xxxxx-x-xxx-xx-xxxxx-|-------------------|-------|

(Chorus)

(Chorus)

(Main Riff)

(Bridge)
Comments