Skid Row - The Threat Chords & Tabs

 

The Threat Chords & Tabs

Skid Row Chords & Tabs

Version: 1 Type: Tab 0 ratings
1 star 2 stars 3 stars 4 stars 5 stars
comments

The Threat Tab

##################################################################################
# This file is the author's own work and represents their interpretation of the  #
# song. You may only use this file for private study, scholarship, or research.  #
##################################################################################

Skid Row -- The Threat

--------------------------------------------------------------------------------
NOTE:

I play in a cover band and we play this song all the time, so this is how I think it's played. Any comments, questions or corrections E-Mail them to iahn@caribe.net Listen to the CD for other guitar parts.
  Tablature Explanation:
p-pull off
h-hammer on
t-two hand tap
fb-full bend
^-tremolo picking
*#*-artificial harmonics

Intro: Play 3x
                           
[-------------------------------------------------------------------------------------------]
[-------------------------------------------------------------------------------------------]
[-------------------------------------------------------------------------------------------]
[---------------------------------3p0-----------------------------------------------------]
[-----------------5p0---------------------------3--5-------------------------5p0--------]
[--0---0--3--0--------3--0--------------3--0----------0------0--0--3--0--------3--0--]


               
[----------------------------------------------------------------------------------------]
[----------------------------------------------------------------------------------------]
[----------2\4\2------------------------------------------------------------------------]
[----------3\5\3p0--3p0-------------------------------------------------3p0---------]
[-------------------------------3--------------------------5p0-------------------------]
[----------------------------------0-------0--0--3--0----------3--0------------3--0--]


[-----------------------------------------------------------------------------------------]
[-----------------------------------------------------------------------------------------]
[-----------------------------------------------------------------------------------------]
[---------------------------------------------3--3--3--3--3--3--3----------------------]
[---3--5-----------------------5p0------------------------------------------------------]
[----------0----0--0--3--0----------3--0-----------------------------0----------------]


Verse 2:Same as Verse 1


Guitar Solo:  A balls out solo by  Snake played very clean and  fast.

[------------------------------------------10----------10--10\15--13-----13----------------------]
[-------------------------------12--10-------10------------------------15-----15fb15-------------]
[-------------------------------12--10-----------10----------------------------------------------]
[--------3--3fb---------5\12---------------------------------------------------------------------]
[--3--5----------5--3--5-----------------------------------------------------------------3fb--3v-]
[------------------------------------------------------------------------------------------------]
[ Tab from: http://www.guitartabs.cc/tabs/s/skid_row/the_threat_tab.html ]
[------------------------------------------------------------------------------------------------]
[------13--*12*v----------------------------------------------------------------------10--13-----]
[--10-----------------------10------10--12--12fb--12fb10-------10--10fb---12------------12--]
[----------------------\12-------12------------------------10--12---------------12---------------]
[------------------------------------------------------------------------------------------------]
[------------------------------------------------------------------------------------------------]

[------------------------------------------------------------------------------------------------]
[---10h12p10------10-----------------------------------------------------------------------------]
[-----------------13-----13--12p1012p10-12fbv--------------------12fb12--12p10--12p10--]
[-----------------------------------------------------------3-------------------------------------]
[------------------------------------------------------3h5-----5--5--3----------------------------]
[-------------------------------------------------------------------------------------------------]

[-------------------------------------------------------------------------------------------------]
[--------------------------------------1\10------------------------------------\10--t15p10h13-----]
[---13p10--12p10-------10--------------t12p7h10-t12p7h10-t12p10-------------------------]
[----------------------12--------12v--------------------------------------------------------------]
[-------------------------------------------------------------------------------------------------]
[-------------------------------------------------------------------------------------------------]

[--------------------------------t15p10h13----------15p13h15--------13-----13h15h17-----]
[-----t15p10h13-t15p10h13--------------t15p10--------------13--------15------------------]
[-------------------------------------------------------------------------------------------------]
[-------------------------------------------------------------------------------------------------]
[-------------------------------------------------------------------------------------------------]
[-------------------------------------------------------------------------------------------------]

[----------------------10h12h13-----------------------------------------------------------------]
[---------------1\10-------------------------------------------------------------------------------]
[------------------------------------^5---------^7\9-----7---^9\10--10\12--12--10--12-12--]
[---12--10v--------------------------------------------------------------------12--10--12-12--]
[-----------------------------------------------------------------------------------------------]
[-----------------------------------------------------------------------------------------------]

[-------------------------------------------------------------------------10-------------------]
[---10h10p10-------10--13v---10h13--13fb-----13v---10------------13-10----------10--]
[------------------12---------------------------------------------12fb--------------12fb--------]
[-------------------------------------------------------------------------------------------------]
[----------------------------------------------------------------------------------------------]
[----------------------------------------------------------------------------------------------]

--------------------------------------------------------------------------------
Comments