Skid Row - Quicksand Jesus Chords & Tabs

 

Quicksand Jesus Chords & Tabs

Skid Row Chords & Tabs

Version: 3 Type: Tab 0 ratings
1 star 2 stars 3 stars 4 stars 5 stars
comments

Quicksand Jesus Tab

   
                                 QUICKSAND JESUS
                             As recorded by Skid Row
                    (From the 1991 Album SLAVE TO THE GRIND)

Words by Rachel Bolan

Music by Dave The Snake Sabo, Rachel Bolan
Arranged by Skid Row
Transcribed by Ethereal Sin

Gtr I (E A D G B E) - 'Guitar I'
Gtr II (E A D G B E) - 'Guitar II'
Gtr III (E A D G B E) - 'Guitar III'
Gtr IV (E A D G B E) - 'Guitar IV'

 Intro
  Moderately Slow Ballad Q=60
  Gmaj7/E  Dadd11/EGmaj7susGmaj7/E   Gmaj7/E  Dadd11/EGmaj7susGmaj7/E
 4/4
  Gtr I
  S S  S S S S S S S S S S S S S S   S S  S S S S S S S S S S S S S S
|----------------------------------|-----------------------------------|
|--------8-------3-------7-------0-|--------8-------3-------7-------0--|
|-----11-------0-------0-------0---|-----11-------0-------0-------0----|
|---9--------4-------7-------4-----|---9--------4-------7-------4------|
|----------------------------------|-----------------------------------|
|-0--------0-------0-------0-------|-0--------0-------0-------0--------|


  Gmaj7/C  Dadd11/CGmaj7susGmaj7/C   Gmaj7/E  Dadd11/EGmaj7susC/E
  S S  S S S S S S S S S S S S S S   S S  S S S S S S S S S S S S T S T
|----------------------------------|-------------------------------------||
|--------8-------3-------7-------0-|--------8-------3-------7-----1p0----||
|-----11-------0-------0-------0---|-----11-------0-------0-----------0--||
|---9--------4-------7-------4-----|---9--------4-------7-------2--------||
|-0--------0-------0-------0-------|-------------------------------------||
|----------------------------------|-0--------0-------0-------0----------||


 1st Verse
  Gmaj7/E  Dadd11/EGmaj7susGmaj7/E   Gmaj7/E  Dadd11/EGmaj7susGmaj7/E
  S S  S S S S S S S S S S S S S S   S S  S S S S S S S S S S S S S S
|----------------------------------|----------------------------------|
|--------8-------3-------7-------0-|--------8-------3-------7-------0-|
|-----11-------0-------0-------0---|-----11-------0-------0-------0---|
|---9--------4-------7-------4-----|---9--------4-------7-------4-----|
|----------------------------------|----------------------------------|
|-0--------0-------0-------0-------|-0--------0-------0-------0-------|


  (Em)     Dadd11/CGmaj7susGmaj7/C   Gmaj7/E  Dadd11/EGmaj7susC/E
  S S  S S S S S S S S S S S S S S   S S  S S S S S S S S S S S S T S T
|----------------------------------|-------------------------------------|
|--------8-------3-------7-------0-|--------8-------3-------7-----1p0----|
|-----11-------0-------0-------0---|-----11-------0-------0-----------0--|
|---9--------4-------7-------4-----|---9--------4-------7-------2--------|
|-0--------0-------0-------0-------|-------------------------------------|
|----------------------------------|-0--------0-------0-------0----------|


  (Em)     Dadd11/EGmaj7susGmaj7/E     Gmaj7/EDadd11/EGmaj7sus2/EGmaj7/C
  Gtr II
  W                                  H                E   S S    +E    +S  S
|-0--------------------------------|----------------------0------------------|
|-0--------------------------------|----------------------0------------------|
|-0--------------------------------|------------------------2b4==(2)r==(2)-0-|
|-2--------------------------------|-----------------------------------------|
|-2--------------------------------|-----------------------------------------|
|-0--------------------------------|-----------------------------------------|
|
| Gtr I
| S S  S S S S S S S S S S S S S S   S S  S S S S S S S S S S     S  S  S  S
|----------------------------------|-----------------------------------------|
|--------8-------3-------7-------0-|--------8-------3-------7--------------0-|
|-----11-------0-------0-------0---|-----11-------0-------0-------------0----|
|---9--------4-------7-------4-----|---9--------4-------7------------4-------|
|----------------------------------|-----------------------------------------|
|-0--------0-------0-------0-------|-0--------0-------0-----------0----------|


  Gmaj7/E   Dadd11/EGmaj7susGmaj7/C   Gmaj7/E   Dadd11/EGmaj7susC/E
                                                                PM
  H.                        S S S S   H.                        S S S   S
|-----------------------------------|---------------------------------------||
|-3---------------------------------|---------------------------------------||
|-0---------------------------------|---------------------------------------||
|---------------------------0-0-2s4-|-----------------------------------0---||
|-3---------------------------------|-----------------------------2-2---0---||
|-----------------------------------|-0-------------------------0-0-0-------||
|
| S  S  S S S S S S S S S S S S S S   S  S  S S S S S S S S S S S S T S   T
|-----------------------------------|---------------------------------------||
|---------8-------3-------7-------0-|---------8-------3-------7-----1p0-----||
|------11-------0-------0-------0---|------11-------0-------0-------------0-||
|----9--------4-------7-------4-----|----9--------4-------7-------2---------||
|-0---------0-------0-------0-------|---------------------------------------||
|-----------------------------------|-0---------0-------0-------0-----------||


 Pre-chorus
  D5/A                      G5            BmG/E  G/Bm/E  Bm/E    G/E
                                      PM|            PM|     PM|
  Q..             S S S E   Q         S S S E.   S S S S S S S S S S
|-----------------------------------|-----7-7----7-7-----7-7-----7----|
|-3---------------------3---3-------|-----7-8----8-7-----7-7-----8p7--|
|-2-------------------0-----0-------|-----7-7----7-7-----7-7-----7----|
|-0---------------0-----------------|-----7-9----9-9-----9-9-----9----|
|-0-----------------3---------------|-----7-7----7-7-----7-7-----7----|
|-----------------------------------|-0-0------------0-0-----0-0------|
|
| S   S S S S S S S S S S S S S S S   S S S E  S S E   S S E   S E
|-----------0---------------0-------|-----7-7--7-7-7---7-7-7---7-7----|
|-3-------3---3-----------3---3-----|-----7-8--8-8-7---7-7-7---7-7----|
|-2-----2-------2-------0-------0---|-----7-7--7-7-7---7-7-7---7-7----|
|-0---0-----------0---2-----------2-|-----9-9--9-9-9---9-9-9---9-9----|
|-------------------0---------------|-----7-7--7-7-7---7-7-7---7-7----|
|-----------------------------------|-0-0-----------------------------|


  D5/A                                  Gmaj7/B                 G5
  Q..             S S S Q       +S  S   S S S S S S S S S S S S S S E
|-------------------------------------|--------------------------------|
|-3---------------------3-------(3)---|---------3----------------------|
|-2-------------------0---------------|-----0-----0---0---0---0-----0--|
|-0---------------0-------------------|---4---4-----4-------4-----0----|
|-0-----------------3---------------3-|-2---------------2--------------|
|-------------------------------------|-------------------------3------|
|
| S   S S S S S S S S S S S S S  S  S   S S S S S S S S S S S S S S E
|-----------0-------------------------|--------------------------------|
|-3-------3---3-------------3-1-------|--------------------------------|
|-2-----2-------2-------0--------0----|---------7-------------------0--|
|-0---0-----------0---2---2---------2-|-----5-----5---5---5---5---0----|
|-------------------0-----------------|---6---6-----6-------6----------|
|-------------------------------------|-7---------------7-------3------|


  Gmaj7/E  Dadd11/EGmaj7sus2/Gmaj7/C
                             ~~
  H                +E.     S E.     S
|-------------------------------------|
|--------------------------0--------0-|
|--------------------------0----------|
|--------------------------0-2--------|
|-------------------------------------|
|-0----------------(0)----------------|
|
| S S  S S S S S S  S  S S S S  S S S
|-------------------------------------|
|--------8-------3---------7--------0-|
|-----11-------0---------0--------0---|
|---9--------4---------7--------4-----|
|-------------------------------------|
|-0--------0--------0--------0--------|


  Gmaj7/E    Dadd11/EGmaj7susGmaj7/C
                             |----3----|
  +Q.            S S S S S S S   +S    S S S
|----------------------0---0-----------------|
|-(0)------------0-3s5---3-----------------3-|
|----------------------------2b4r(2)---0---0-|
|----------------------------------------2---|
|--------------------------------------------|
|--------------------------------------------|
|
|  S  S  S S S S S S S S S S S       S   S S
|--------------------------------------------|
|----------8-------3-------7---------------0-|
|-------11-------0-------0---------------0---|
|-----9--------4-------7-------------4-------|
|--------------------------------------------|
|--0---------0-------0-------0---------------|


  Gmaj7/E   Dadd11/E  Gmaj7sus2Gmaj7/C
  Q.            +S  S E.     S S S S S
|--------------------------------------|
|-3-------------(3)--------------------|
|-0-------------(0)---2------0---------|
|-------------------0-0--------4p2p0-2-|
|-3-------------(3)------------------2-|
|------------------------------------0-|
|
| S  S  S S S S  S  S S  S S S S S S S
|--------------------------------------|
|---------8---------3--------7-------0-|
|------11--------0---------0-------0---|
|----9--------4----------7-------4-----|
|-0---------0---------0--------0-------|
|--------------------------------------|


  Gmaj7/E    Dadd11/EGmaj7susC/E
  +W
|---------------------------------------||
|---------------------------------------||
|---------------------------------------||
|-(2)-----------------------------------||
|-(2)-----------------------------------||
|-(0)-----------------------------------||
|
|  S  S  S S S S S S S S S S S S T S T
|---------------------------------------||
|----------8-------3-------7-----1p0----||
|-------11-------0-------0-----------0--||
|-----9--------4-------7-------2--------||
|---------------------------------------||
|--0---------0-------0-------0----------||


 2nd Verse
  Gmaj7/E  Dadd11/EGmaj7susGmaj7/C   Gmaj7/E  Dadd11/EGmaj7sus2/E  Gmaj7/C
  W                                  H                E   S  S      +Q
|----------------------------------|------------------------------------------|
|----------------------------------|------------------------15b17==(15)-------|
|----------------------------------|------------------------------------------|
|----------------------------------|------------------------------------------|
|----------------------------------|------------------------------------------|
|----------------------------------|-------------------------0------(0)-------|
|
| S S  S S S S S S S S S S S S S S   S S  S S S S S S S S S  S       S  S S S
|----------------------------------|------------------------------------------|
|--------8-------3-------7-------0-|--------8-------3--------7--------------0-|
|-----11-------0-------0-------0---|-----11-------0-------0---------------0---|
|---9--------4-------7-------4-----|---9--------4-------7---------------4-----|
|----------------------------------|------------------------------------------|
|-0--------0-------0-------0-------|-0--------0-------0--------------0--------|


  Gmaj7/E      Dadd11/CGmaj7susGmaj7/C   Gmaj7/E  Dadd11/EGmaj7susC/E
   +W                                    W
|--------------------------------------|-------------------------------------|
|-(15)r--------------------------------|-------------------------------------|
|--------------------------------------|-------------------------------------|
|--------------------------------------|-------------------------------------|
|--------------------------------------|-------------------------------------|
|--(0)---------------------------------|-------------------------------------|
|
|   S   S  S S S S S S S S S S S S S S   S S  S S S S S S S S S S S S T S T
|--------------------------------------|-------------------------------------|
|------------8-------3-------7-------0-|--------8-------3-------7-----1p0----|
|---------11-------0-------0-------0---|-----11-------0-------0-----------0--|
|-------9--------4-------7-------4-----|---9--------4-------7-------2--------|
|---0----------0-------0-------0-------|-------------------------------------|
|--------------------------------------|-0--------0-------0-------0----------|


  Gmaj7/E  Dadd11/EGmaj7susGmaj7/E   Gmaj7/E  Dadd11/E Gmaj7sus2/Gmaj7/E
  W                                  Q        S E.     +E    E   S S S S
|-0--------------------------------|-------------------------------7-----|
|-0--------------------------------|------------0------(0)-----------8---|
|-0--------------------------------|------------0------(0)---4s==7-----7-|
|-2--------------------------------|----------0--------------------------|
|-2--------------------------------|-------------------------------------|
|-0--------------------------------|-------------------------------------|
|
| S S  S S S S S S S S S S S S S S   S S  S S S S  S S  S  S S S S S S S
|----------------------------------|-------------------------------------|
|--------8-------3-------7-------0-|--------8--------3---------7-------0-|
|-----11-------0-------0-------0---|-----11--------0---------0-------0---|
|---9--------4-------7-------4-----|---9--------4----------7-------4-----|
|----------------------------------|-------------------------------------|
|-0--------0-------0-------0-------|-0--------0---------0--------0-------|


  Gmaj7/C   Dadd11/CGmaj7sus2/C     Gmaj7/C
   H                 +E.      +T  T S S S S
|-------------------------------------------|
|-------------------------------------------|
|---------------------------------------0---|
|-10----------------(10)-----(10)-4-0-0---4-|
|-------------------------------------------|
|-------------------------------------------|
|
|  S S  S S S S S S   S  S S   S    S S S S
|-------------------------------------------|
|---------8-------3------------7----------0-|
|------11-------0----------0------------0---|
|----9--------4----------7------------4-----|
|--0--------0---------0-------------0-------|
|-------------------------------------------|


  Gmaj7/E  Dadd11/E  Gmaj7susC/E Em
  E    E   +H                E   E
|----------------------------0---0-----||
|----------------------------0---0-----||
|----------------------------0---0-----||
|-2--------------------------2---2-----||
|----------------------------2---2-----||
|------0---(0)---------------0---0-----||
|
| S S  S S  S  S S S S S S S S S T S T
|--------------------------------------||
|--------8---------3-------7-----1p0---||
|-----11---------0-------0-----------0-||
|---9----------4-------7-------2-------||
|--------------------------------------||
|-0---------0--------0-------0---------||


 Pre-chorus
  D5/A                      G5            BmG/E  G/Bm/E  Bm/E    G/E
                                      PM|            PM|     PM|
  Q..             S S S E   Q         S S S E.   S S S S S S S S S S
|-----------------------------------|-----7-7----7-7-----7-7-----7----|
|-3---------------------3---3-------|-----7-8----8-7-----7-7-----8p7--|
|-2-------------------0-----0-------|-----7-7----7-7-----7-7-----7----|
|-0---------------0-----------------|-----7-9----9-9-----9-9-----9----|
|-0-----------------3---------------|-----7-7----7-7-----7-7-----7----|
|-----------------------------------|-0-0------------0-0-----0-0------|
|
| S   S S S S S S S S S S S S S S S   S S S E  S S E   S S E   S E
|-----------0---------------0-------|-----7-7--7-7-7---7-7-7---7-7----|
|-3-------3---3-----------3---3-----|-----7-8--8-8-7---7-7-7---7-7----|
|-2-----2-------2-------0-------0---|-----7-7--7-7-7---7-7-7---7-7----|
|-0---0-----------0---2-----------2-|-----9-9--9-9-9---9-9-9---9-9----|
|-------------------0---------------|-----7-7--7-7-7---7-7-7---7-7----|
|-----------------------------------|-0-0-----------------------------|


  D5/A                                  Gmaj7/B         Gm7/Bb
                                       2/4             4/4
  Gtr III
  W                                     H               H         Q   Q
|-------------------------------------|---------------|-------------------||
|-------------------------------------|---------------|-------------------||
|-------------------------------------|---------------|-------------------||
|-------------------------------------|---------------|-------------------||
|-------------------------------------|---------------|-------------------||
|-------------------------------------|---------------|--------------19\--||
|
| Gtr II
|                                                       |-3-|
| Q..             S S S Q       +S  S   S S S E S S S   E E E H.
|-------------------------------------|---------------|-------------------||
|-3---------------------3-------(3)---|-------3-------|-------3-----------||
|-2-------------------0---------------|-----0---0---0-|-----0-------------||
|-0---------------0-------------------|---4-------4---|---3---------------||
|-0-----------------3---------------3-|-2-------------|-1-----------------||
|-------------------------------------|---------------|-------------------||
|
| Gtr I
|                                                       |-3-|
| S   S S S S S S S S S S S S S  S  S   S S S E S S S   E E E H.
|-----------0-------------------------|---------------|-------------------||
|-3-------3---3-------------3-1-------|---------------|-------------------||
|-2-----2-------2-------0--------0----|-------7-------|-------7-----------||
|-0---0-----------0---2---2---------2-|-----5---5---5-|-----5-------------||
|-------------------0-----------------|---6-------6---|---5---------------||
|-------------------------------------|-7-------------|-6-----------------||


 Chorus
  E5   G5     A5      G5   E5   G5 D5   G5/C     D5 G5
  H    H      H.      Q    H    Q  Q    H    +E. E. E
|-----------|------------|------------|----------------|
|-----------|------------|------------|-3----(3)-------|
|-----------|------------|---------7--|-0----(0)-7-----|
|-2----5----|-7-------5--|-2----5--7--|----------7--5--|
|-2----5----|-7-------5--|-2----5--5--|-3----(3)-5--5--|
|-0----3----|-5-------3--|-0----3-----|-------------3--|


  E5   G5     A5         B5   D5   E5  E5
  H    H      W          H    Q.   E   +W
|-----------|----------|-------------|--------------------------||
|-----------|----------|-------------|--------------------------||
|-----------|----------|-4----7------|--------------------------||
|-2----5----|-7--------|-4----7----2-|-(2)----------------------||
|-2----5----|-7--------|-2----5----2-|-(2)----------------------||
|-0----3----|-5--------|-----------0-|-(0)----------------------||
|
| Gtr IV
| W           W          W              H     Q  S  T  T  S  S
|-----------|----------|-------------|-------------------12-14--||
|-----------|----------|-------------|----------------12--------||
|-----------|----------|-------------|-------------14-----------||
|-----------|----------|-------------|-----------x--------------||
|-----------|----------|-------------|--------------------------||
|-----------|----------|-------------|--------------------------||


 Guitar solo
  D5             C5      E5
   H              Q        Q
|-----------------------------------|
|-----------------------------------|
|--7-----------------------9--------|
|--7-------------10--------9--------|
|--5-------------10--------7--------|
|-----------------8-----------------|
|
|  Q      E..  T  Q       +E.  +S
|-14b15--14---12-14b15===(14)-(14)r-|
|-----------------------------------|
|-----------------------------------|
|-----------------------------------|
|-----------------------------------|
|-----------------------------------|


  A5    E5
   S     E.     H.
|---------------------------------------------------------|
|---------------------------------------------------------|
|---------------------------------------------------------|
|--7-----2------2-----------------------------------------|
|--7-----2------2-----------------------------------------|
|--5-----0------0-----------------------------------------|
|
|        \0.5/
|                                                ~~~~~~~
|  S     E.     S      +S   +S    S  T  T  T  T  E  +E. S
|-12b13--------------------------------------10-----------|
|-------12-----12b13==(12)-(12)r-10-------12----12-(12)-9-|
|-----------------------------------11h12-----------------|
|---------------------------------------------------------|
|---------------------------------------------------------|
|---------------------------------------------------------|


  D5                          C5           E5
  H                            Q           Q
|--------------------------------------------------------|
|--------------------------------------------------------|
|-7----------------------------------------9-------------|
|-7---------------------------10-----------9-------------|
|-5---------------------------10-----------7-------------|
|------------------------------8-------------------------|
|
| S T T S     T T S S S S      S  S    S S S   T T T T S
|--------------------------------------------------------|
|-------8b8.5-----------8b8.5----10b12-8---8b9-----------|
|---7-9-------7-9-9-7-9--------9---------9-----9-7-------|
|-9------------------------------------------------9-8-7-|
|--------------------------------------------------------|
|--------------------------------------------------------|

[ Tab from: http://www.guitartabs.cc/tabs/s/skid_row/quicksand_jesus_tab_ver_3.html ]
  A5     E5
  S       E.  H.
|--------------------------------------|
|--------------------------------------|
|--------------------------------------|
|-7-------2---2------------------------|
|-7-------2---2------------------------|
|-5-------0---0------------------------|
|
|             |--3--|
| S      +E. +E   E E E. T T E.   +S
|-----------------3--------------------|
|-------------------3------------------|
|-2b3.5==(2)-(2)r-----2--2p0-2b3==(2)r-|
|--------------------------------------|
|--------------------------------------|
|--------------------------------------|


  D5               C5         E5          A5E5
   H               Q          Q           S E.     H.
|---------------------------------------|-----------------------------|
|---------------------------------------|-----------------------------|
|--7---------------5----------9---------|-----------------------------|
|--7---------------5----------9---------|-7-2------2------------------|
|--5---------------3----------7---------|-7-2------2------------------|
|---------------------------------------|-5-0------0------------------|
|
|            ~            ~~~~~~~~~~
|  S  S  S S E S S S S  S E..   +T  T T   S S  S S E  S S S S S S  Q
|---------------------------------------|------0---0------0---0-0-----|
|-----------------------------------0-0-|-3s7----7----5s8---8-7-8s12--|
|-12s11-11s9-9-9p7-7h9s12-7-----(7)-----|-----------------------------|
|---------------------------------------|-----------------------------|
|---------------------------------------|-----------------------------|
|---------------------------------------|-----------------------------|


  D5           C5  E5
  H             Q   Q
|---------------------------|
|---------------------------|
|-7-------------5---9-------|
|-7-------------5---9-------|
|-5-------------3---7-------|
|---------------------------|
|
|               ~~
|        |-3-|
| Q  S S S S S  Q   E.   S
|---------------------------|
|------------------10-------|
|----------7-9s12------[11]-|
|-5--5-7s9------------------|
|---------------------------|
|---------------------------|


  B5                                                                           E5          G5
   W                                                                            H          H
|----------------------------------------------------------------------------|------------------||
|----------------------------------------------------------------------------|------------------||
|--4-------------------------------------------------------------------------|------------------||
|--4-------------------------------------------------------------------------|--2----------5----||
|--2-------------------------------------------------------------------------|--2----------5----||
|----------------------------------------------------------------------------|--0----------3----||
|
|                                                                                      ~~~
|  E     S      +S    S      +S    S      +S    S  S  S  S        +E    S  S    Q      H.
|-------------------------------------------------------14b14.5==(14)r-------|------------------||
|----------------------------------------------12-10-------------------12----|-15b17--15--------||
|-11b12-11b12==(11)r-11b12==(11)r-11b12==(11)r-------12-------------------12-|--------15--------||
|----------------------------------------------------------------------------|------------------||
|----------------------------------------------------------------------------|------------------||
|----------------------------------------------------------------------------|------------------||


 Chorus
  A5       G5        E5   G5 D5   G5/C     D5 G5   E5   G5
   H.       Q        H    Q  Q    H    +E. E. E    H    H
|------------------|------------|----------------|-----------|
|------------------|------------|-3----(3)-------|-----------|
|------------------|---------7--|-0----(0)-7-----|-----------|
|--7--------5------|-2----5--7--|----------7--5--|-2----5----|
|--7--------5------|-2----5--5--|-3----(3)-5--5--|-2----5----|
|--5--------3------|-0----3-----|-------------3--|-0----3----|
|
|  ~~~
|  H.       E.  S    W            W                W
|----------15--15\-|------------|----------------|-----------|
|-15---------------|------------|----------------|-----------|
|-15---------------|------------|----------------|-----------|
|------------------|------------|----------------|-----------|
|------------------|------------|----------------|-----------|
|------------------|------------|----------------|-----------|


  A5             B5    C5C5D5  E5
  W              Q..   S E E E E   H..          +S  S   +W
|--------------|-----------------|--------------------|----------------|
|--------------|-----------------|--------------------|----------------|
|--------------|-4-----5-5-7-7---|--------------------|----------------|
|-7------------|-4-----5-5-7-7-2-|-2------------(2)-2-|-(2)------------|
|-7------------|-2-----3-3-5-5-2-|-2------------(2)-2-|-(2)------------|
|-5------------|---------3-----0-|-0------------(0)-0-|-(0)------------|
|
|                                                   ~~~~~~~~
| H    H         W                 H      Q..       S   +Q.   E +H
|--------------|-----------------|--------------------|----------------|
|------8b10----|-----------------|--------------------|----------------|
|--------------|-----------------|--------------------|-------0-(0)----|
|--------------|-----------------|------------------2-|-(2)------------|
|--------------|-----------------|--------------------|----------------|
|--------------|-----------------|--------------------|----------------|


  C5     D5       E5   E5                     C    D        E5
   H     Q..       S   W                      H    Q.   +S  S
|--------------------|----------------------|-----------------|
|--------------------|----------------------|-----------------|
|--5-----7---------9-|----------------------|-5----7----(7)-9-|
|--5-----7---------9-|-2--------------------|-5----7----(7)-9-|
|--3-----5---------7-|-2--------------------|-3----5----(5)-7-|
|--------------------|-0--------------------|-----------------|
|
| +H.         +E.  S   Q  E E E E   S S S S   H    Q.   +S  S
|--------------------|--------------3p2-----|-0----2----(2)-0-|
|-----------------12-|----7-7-7-7b8-----3---|-1----3----(3)-0-|
|-(0)---------(0)----|----7-7-7-7b9-------2-|-0----2----(2)---|
|--------------------|----------------------|------0----(0)---|
|--------------------|----------------------|-3---------------|
|--------------------|-0--------------------|-----------------|


  E5                         C5   D/A   E5  E5
  W                          H    Q..   S   W
|--------------------------|--------------|-------------------------|
|--------------------------|--------------|-------------------------|
|--------------------------|-5----7-----9-|-------------------------|
|-2------------------------|-5----7-----9-|-2-----------------------|
|-2------------------------|-3----5-----7-|-2-----------------------|
|-0------------------------|--------------|-0-----------------------|
|
| Q.   S S S S S S S S  E    H    Q..   S   Q  Q  +S  S S S S  S E
|-0------------------------|------2-------|----0--(0)-----7---------|
|-0----------------7h8-10\-|-3----3-----5-|----0--(0)-------8h10----|
|-0----7s9-9s8-9-9------7\-|-0----2-------|-0---------2s7--------9\-|
|-2------------------------|------0-----2-|-2-----------------------|
|-2----5s7-7s6-7-----------|-3----0-------|-2-----------------------|
|-0------------------------|--------------|-0-----------------------|


  C5   D5    E5  Em                                  C5   D5
  H    Q..   S   W                                   H    H
|--------------|-----------------------------------|-----------|
|--------------|-----------------------------------|-----------|
|-5----7-----9-|-----------------------------------|-5----7----|
|-5----7-----9-|-2---------------------------------|-5----7----|
|-3----5-----7-|-2---------------------------------|-3----5----|
|--------------|-0---------------------------------|-----------|
|
|                    |---3---|    |--3--|   |-3-|
| H    Q..   S   Q   E   E   E    E  E  E   Q   E    H    H
|------2-----0-|-0-------------------0-------------|------0----|
|-3----3-----0-|-0------<7>-----<12>-------<7>-----|-3----3----|
|-0----2-------|-0--<5>-----<7>--------<5>-----<5>-|-0----2----|
|------0-------|-2---------------------------------|------0----|
|-3------------|-2---------------------------------|-3----0----|
|--------------|-0---------------------------------|-----------|


  C5           D5             C5   D5
  H            H              H    H
|---------------------------|-----------|
|---------------------------|-----------|
|-5------------7------------|-5----7----|
|-5------------7------------|-5----7----|
|-3------------5------------|-3----5----|
|---------------------------|-----------|
|
| Q  +S  S S S E. S S S  E    H    H
|--------------2----3p2-[3]-|-----------|
|--------------3----3-------|-3----3----|
|-5--(5)-----5-2----2-------|-0----2----|
|-5--(5)-----5-0----0-------|------0----|
|-3--(3)-5s7------0---------|-3----0----|
|---------------------------|-----------|


  E5E       F#          G        A    E5/BEm/G
                                  |--3--|
  S S S S S  S  S  S  S  S  S  S  E E   E
|--------------------------------------------|
|--------------------------------------------|
|--------------------------------------------|
|-2-2-2-2-2--2--2--2--2--2--2--2--2-2---2----|
|-2-2-2-2-2--2--2--2--2--2--2--2--2-2---2----|
|-0-0-0-0-0--0--0--0--0--0--0--0--0-0---0----|
|
| S S S S S  S  S  S  S  S  S  S  E   S   S
|-------------------------------------0---0--|
|-------------------------------------0---0--|
|-7s9-9-9-9s11-11-11-11s12-12-12s14-------0--|
|--------------------------------------------|
|-5s7-7-7-7s=9--9--9--9s10-10-10s12----------|
|--------------------------------------------|


  G5/C D/A   E5
  H    Q..   S   W
|------2-------|---------------------------|
|-3----3-------|---------------------------|
|-0----2-------|---------------------------|
|------0-----2-|-2-------------------------|
|-3----0-----2-|-2-------------------------|
|------------0-|-0-------------------------|
|
| H    Q..   S   Q   Q      +E   E  S E S
|------2-------|-0-------------------------|
|-3----3-------|-0--17b19r=(17)------------|
|-0----2-------|-0--------------16-16s4-4\-|
|------0-------|-2-------------------------|
|-3----0-------|-2-------------------------|
|------------0-|-0-------------------------|


  G5/C        D/A           E5
   H          Q..           S    W
|-------------2---------------|---------------------------|
|--3----------3---------------|---------------------------|
|--0----------2---------------|---------------------------|
|-------------0-------------2-|--2------------------------|
|--3----------0-------------2-|--2------------------------|
|---------------------------0-|--0------------------------|
|
|             |--3--| |-3-|
|  Q.    +E   E   E E E E E      E   E   Q    S   +E.  Q
|-----------------------------|---------------------------|
|-----------------------------|---------------------------|
|-[7]---([7])-x---x-x-x-x-x---|-<5>-----<5>--<5>-(<5>)----|
|-----------------------------|-----<5>----------------x--|
|-----------------------------|---------------------------|
|-----------------------------|---------------------------|


 Outro solo
  G5/C                               D/A                            E5
   H                                 Q..                            S
|------------------------------------2--------------------------------|
|--3---------------------------------3--------------------------------|
|--0---------------------------------2--------------------------------|
|------------------------------------0------------------------------2-|
|--3---------------------------------0------------------------------2-|
|-------------------------------------------------------------------0-|
|
|  E     S  S  T     +T   T  S  S  S      S  S  S  S  S  S       S.
|-------12------------------------------------------------------------|
|----------15----------------------------12----------12-12b12.5-------|
|-14b16-------14b16r(14)-12-14-12--------12----------12-12b13---------|
|---------------------------------14--------14-14-12------------14----|
|---------------------------------------------------------------------|
|---------------------------------------------------------------------|


  W
|---------------------------------------||
|---------------------------------------||
|---------------------------------------||
|-2-------------------------------------||
|-2-------------------------------------||
|-0-------------------------------------||
|
|                      |-3-|
| S S  S   S    S   E. S S S E T T  E.
|---------------------------------------||
|---------------------------------------||
|--------[12]------------7-7------------||
|-9-----------[14]-14--9-----9-8-7------||
|---4s14---------------------------10---||
|---------------------------------------||


  G5/C          D/A     E5
  H               Q..   S
|-----------------2-------|
|-3---------------3-------|
|-0---------------2-------|
|-----------------0-----2-|
|-3---------------0-----2-|
|-----------------------0-|
|
|             ~~~~~~~~
| E  S  S  E  E  +H
|-------------------------|
|-x-12----12--------------|
|-x-12----12-14-(14)------|
|------14-----------------|
|-------------------------|
|-------------------------|


   W
|--------------------------------------------------------------------------------------------------|
|--------------------------------------------------------------------------------------------------|
|--------------------------------------------------------------------------------------------------|
|--2-----------------------------------------------------------------------------------------------|
|--2-----------------------------------------------------------------------------------------------|
|--0-----------------------------------------------------------------------------------------------|
|
|                  |-3-|  |---3----|
|  E  S  T  T     +E   S  S     S  S  T  T  T     T  T     T  T  T  T     T  T  T  S      +T    T
|---------------------------------12-15p12-------12------------------------------------------------|
|----12-12-15b17r(15)-12-------12----------15b17----------12-14p12-------12-15p12------------------|
|------------------------14b16----------------------14b16----------14b16----------14b16==(14)r-12--|
|-14-----------------------------------------------------------------------------------------------|
|--------------------------------------------------------------------------------------------------|
|--------------------------------------------------------------------------------------------------|


  G5/C           D/A     E5
   H               Q..   S    W
|------------------2-------|---------------------------------------------------------------------|
|--3---------------3-------|---------------------------------------------------------------------|
|--0---------------2-------|---------------------------------------------------------------------|
|------------------0-----2-|--2------------------------------------------------------------------|
|--3---------------0-----2-|--2------------------------------------------------------------------|
|------------------------0-|--0------------------------------------------------------------------|
|
|  E  S  S  E  E  +H          E     S  S  S      +S    E  S      +S    S  S     S  S     S  S
|--------------------------|----------12-----------------15b17==(15)r-12-------12-------12-------|
|-12-------12--------------|-------12----15b17==(15)r-12-----------------15b17----15b17----15b17-|
|-12-12----12-14-(14)------|-14b16---------------------------------------------------------------|
|----12-14-----------------|---------------------------------------------------------------------|
|--------------------------|---------------------------------------------------------------------|
|--------------------------|---------------------------------------------------------------------|


  G5/C                               D/A              E5
   H                                 Q..              S
|------------------------------------2-------------------|
|--3---------------------------------3-------------------|
|--0---------------------------------2-------------------|
|------------------------------------0----------------2--|
|--3---------------------------------0----------------2--|
|-----------------------------------------------------0--|
|
|               |--3--|                     |--3---|
|  S      +S    S  S  S  S  T  T  Q.       +E  E   E
|-17b18==(17)r-15h17p15----------------------------------|
|-----------------------17p15p17-17-------(17)---[17]----|
|----------------------------------------------0---------|
|--------------------------------------------------------|
|--------------------------------------------------------|
|--------------------------------------------------------|


  E5
   W
|---------------------------------------|
|---------------------------------------|
|---------------------------------------|
|--2------------------------------------|
|--2------------------------------------|
|--0------------------------------------|
|
|                        ~~~~~~~
|  E      +E    S  T  T  E  +Q.    S  S
|-15b17==(15)r--------------------------|
|--------------17p15h17-17-(17)---20p17-|
|---------------------------------------|
|---------------------------------------|
|---------------------------------------|
|---------------------------------------|


  G5/C                D/A                       E5
   H                  Q..                       S    W
|---------------------2---------------------------|---------------------------------------|
|--3------------------3---------------------------|---------------------------------------|
|--0------------------2---------------------------|---------------------------------------|
|---------------------0-------------------------2-|--2------------------------------------|
|--3------------------0-------------------------2-|--2------------------------------------|
|-----------------------------------------------0-|--0------------------------------------|
|
|                  ~~~~~~~~~~~~
|  Q      S  T  T  E.      +S  S  S  S  S  E         Q       +E.   S  E.   T S. S  S  S
|-------------------------------------------------|---------------19--------------19-19---|
|-20b22--17-15h17-17------(17)-3s12-15----17b19---|-17b19===(17)r----17b20----------------|
|--------------------------------------16---------|------------------------x--------------|
|-------------------------------------------------|--------------------------x------------|
|-------------------------------------------------|---------------------------------------|
|-------------------------------------------------|---------------------------------------|


  G5/C            D/A                   E5
   H              Q..                    S
|-----------------2------------------------|
|--3--------------3------------------------|
|--0--------------2------------------------|
|-----------------0----------------------2-|
|--3--------------0----------------------2-|
|----------------------------------------0-|
|
|              ~~~
|  Q      +S   E. S    S  S  S  S  S  S  S
|---------------------------14-14-15-17-15-|
|-22b24r=(22)-22---------15----------------|
|---------------------16-------------------|
|------------------------------------------|
|------------------------------------------|
|------------------------------------------|


   W
|-----------------------------------------------*|
|-----------------------------------------------*|
|-----------------------------------------------*|
|--2--------------------------------------------*|
|--2--------------------------------------------*|
|--0--------------------------------------------*|
|
|                              ~~~~~~~~~~~~~~
|  S  S  S  S.  S  S  E     T  S.  +Q    +T   S
|-14h15p14-14-----------------------------------*|
|--------------15----------------------------13-*|
|-----------------14-12b14-12p14--(14)--(14)----*|
|-----------------------------------------------*|
|-----------------------------------------------*|
|-----------------------------------------------*|


Duration Legend
---------------
W - whole; H - half; Q - quarter; E - 8th; S - 16th; T - 32nd; X - 64th; a - acciaccatura
+ - note tied to previous; . - note dotted; .. - note double dotted
Uncapitalized letters represent notes that are staccato (1/2 duration)
Irregular groupings are notated above the duration line
Duration letters will always appear directly above the note/fret number it represents the
duration for.  Duration letters with no fret number below them represent rests.  Multi-
bar rests are notated in the form Wxn, where n is the number of bars to rest for.  Low
melody durations appear below the staff

Tablature Legend
----------------
 h   - hammer-on
 p   - pull-off
 b   - bend
 pb  - pre-bend
 r   - bend release (if no number after the r, then release immediately)
 /\  - slide into or out of (from/to "nowhere")
 s   - legato slide
 S   - shift slide
  - natural harmonic
[n]  - artificial harmonic
n(n) - tapped harmonic
 ~   - vibrato
 tr  - trill
 T   - tap
 TP  - trem. picking
 PM  - palm muting
\n/  - tremolo bar dip; n = amount to dip
 \n  - tremolo bar down
 n/  - tremolo bar up
/n\  - tremolo bar inverted dip
 =   - hold bend; also acts as connecting device for hammers/pulls
 <>  - volume swell (louder/softer)
 x   - on rhythm slash represents muted slash
 o   - on rhythm slash represents single note slash

Misc Legend
-----------
 |  - bar
||  - double bar
||o - repeat start
o|| - repeat end
*|  - double bar (ending)
 :  - bar (freetime)
 $  - Segno
 &  - Coda
Tempo markers -  = BPM(8/16=s8/s16), where s8 = swing 8ths, s16 = swing 16ths
Comments