Skid Row - Piece Of Me Chords & Tabs

 

Piece Of Me Chords & Tabs

Skid Row Chords & Tabs

Version: 1 Type: Bass Tab 0 ratings
1 star 2 stars 3 stars 4 stars 5 stars
comments

Piece Of Me Bass Tab

   
Skid Row
Piece Of Me
I've seen acouple bass tabs for this, and their not right, so i'm tabing it.

Intro/Verse
G:----------------|
D:----------------|
A:----------------|
E:0-0-7-6-5-0-2-3-|

Chorus                        x2
G:----------------|----------------|-----------------|-----------------|---|
D:----------------|----------------|-----------------|-----------------|---|
A:----------------|----------------|-----------------|-----------------|---|
E:5--5-5--5-5--5-5|-0-0-7-6-5-0-2-3|-5--5-5--5-5--5-5|7-7-7-7-7-7-7-7-7|5-3|
[ Tab from: http://www.guitartabs.cc/tabs/s/skid_row/piece_of_me_btab.html ]
Bridge                                                 x3
G:----------------|----------------|----------------|-----|
D:----------------|----------------|----------------|-----|
A:----------------|----------------|----------------|-----|
E:9--9-9--9-9--9-9|5--5-5--5-5--5-5|7--7-7--7-7--7-7|0-4-5|

Outro
G:---------------|-7h9-7-9-7-9h11--7-----9|
D:---------------|------------------------|
A:---------------|------------------------|
E:0-0-7-6-5-0-2-3|------------------------|

That's it! Any questions or comments, e-mail me at rocklvson@yahoo.com
Please Rate!
Comments