Skid Row - I Remember You Chords & Tabs

 

I Remember You Chords & Tabs

Skid Row Chords & Tabs

Version: 1 Type: Chords 1 rating
1 star 2 stars 3 stars 4 stars 5 stars
comments

I Remember You Chords

   
#----------------------------------PLEASE NOTE---------------------------------#
#This file is the author's own work and represents their interpretation of the #
#song. You may only use this file for private study, scholarship, or research. #
#------------------------------------------------------------------------------#
From: Scardamalia Stephen 
Date: Sat, 28 Oct 95 15:26:00 PDT

Skid Row
I Remember You

Intro/Verse:
  G                Cadd9
e-3-3-3--3-------|-0-0-0--0---------|
B-3-3-3----------|-3-3-3----0h3p0---|
G-0-0-0----------|-0-0-0----------0-|
D-0-0-0--------2-|-2-2-2------------|
A-2-2-2----0h3---|-3-3-3------------|
E-3-3-3----------|------------------|
This fig. can be used during the verses, or you can just strum the chords.
[ Tab from: http://www.guitartabs.cc/tabs/s/skid_row/i_remember_you_crd.html ]
_____.
 (solo)
G             Cadd9
G             Cadd9
D             C
D             C
G             Cadd9
G             Cadd9
G                            Cadd9
 Woke up to the sound of      Pouring rain
 Washed away a                Dream of you
 But nothing else could ever  take you away
D                           C
 Cause you'll always be my   Dream come true
 Oh my Darling,              I love you.
 (repeat chorus several times)

Outro:
 G                Cadd9             G                D*     C*     G
e---------------------------------|------------------2/4\2---------3--------|
B---------3---------------3-------|---------3--------3/5\3--1/3\1--3--------|
G-----0-----0---0-----0-----0---0-|-----0-----0---0--2/4\2--0-0-0--0--------|
D---0---0-----0-----2---0-----2---|---0---0-----0-----------2/4\2--0--------|
A-2---------------3---------------|-2-----------------------3/5\3--2--------|
E---------------------------------|--------------------------------3--------|
*-let ring, don't strum chord after sliding

Cadd9
e--0 |o----
B--3 |---3-
G--0 |o----
D--2 |--1--
A--3 |---2-
E--X |X----
Comments