Skarry Monkey - Life Is Great Chords & Tabs

 

Life Is Great Chords & Tabs

Skarry Monkey Chords & Tabs

Version: 2 Type: Chords 0 ratings
1 star 2 stars 3 stars 4 stars 5 stars
comments

Life Is Great Chords

   
#----------------------------------PLEASE NOTE--------------------------------#
#This file is the author's own work and represents their interpretation of the#
#song. You may only use this file for private study, scholarship, or research.#
#-----------------------------------------------------------------------------#

Date: Thu, 26 Mar 1998 16:54:06 -0500
From: MGraham304  (by way of cal woods)

The band is my band Skarry Monkey, were Punk/Ska. The song that I'm sending
you is called Life is Great. My e-mail is Mgraham304@aol.com. My name is
Martin Graham.

Life is Great
SKARRY MONKEY
 	A very fast punk song

(intro riff, play 3x)

    |-----------------------------------------------------------------|
    | ----4--5--4--5--4--5--4--5--4--5--4--5--4--5--5-----------------|
    |-----------------------------------------------------------------|
    |-----------------------------------------------------------------|
    |-----------------------------------------------------------------|
    |-----------------------------------------------------------------|


(verse) C# octave            C#                       Bm

|---------------------------------------------------------------------------

|---------------------------------------------------------------------------

|--5--5--5--5--5--5--5------------------------------------------------------
[ Tab from: http://www.guitartabs.cc/tabs/s/skarry_monkey/life_is_great_crd_ver_2.html ]
|-----------------------5--5--5--5--5--5--5--5--3--3--3--3--3--3--3---------

|--3--3--3--3--3--3--3--3--3--3--3--3--3--3--3--1--1--1--1--1--1--1---------

|---------------------------------------------------------------------------
							(heavy palm muting)

(@@-Martin and Jaymz sing)

(*-Jaymz)
           C#octave
         *Getting laid by your only love
           C#
          Falling in love
           Bm
         *Your only love loving you
           C#octave
          Staying with your love
           C#
         *Smoking weed 24-7
           Bm
          Getting high 24-7
           C#octave
         *Having a pet ferrit
           C#
        @@All jocks dying
           Bm
         *Having lots of money
           C#octave
          Having lots of chicks
           C#
         *This stuff doesn't matter life will never be great
           Bm
         *I'll never get laid especially by the girl that loves me
           C#octave
         *I don't have any money so weed supply runs low
           C#
         *And I can't even afford a ferrit
          (NO MUSIC)
        @@All jocks still live
           C#octave
          I fell in love it always ends
           C#
          She doesn't want me high
           Bm
          I can't even keep a monkey how my going to get chicks

                                                (END ON F#)
Comments