Skarlet - Endless Regret Chords & Tabs

 

Endless Regret Chords & Tabs

Skarlet Chords & Tabs

Version: 1 Type: Tab 0 ratings
1 star 2 stars 3 stars 4 stars 5 stars
comments

Endless Regret Tab

   
INTRO

E|-------------------------|
B|-------------------------|
G|-------------------------|
D|-44/66/77\66\44/66/77\66-|   TIMES 3
A|-44/66/77\66\44/66/77\66-|
E|-44/66/77\66\44/66/77\66-|

 

END INTRO

E|--------|
B|--------|
G|--------|                                                                                 
D|-665544-|
A|-776655-|
E|-776655-|

 
PRE VERSE (TREMELO ARM DOWN)

E|---------------------------------|
B|15-15-15-------------------------|
G|----------14-14-14-14-13-13-13-13|  TIMES 3
D|---------------------------------|
A|---------------------------------|
E|---------------------------------|

 
VERSE 1  (PART 1)

E|---------------------------------------------|
B|---------------------------------------------|
G|---------------------------------------------|
D|-19-19-19-19-17--17-17-17-17-15--15-15-15-15-|
A|-19-19-19-19-17--17-17-17-17-15--15-15-15-15-|
E|-19-19-19-19-17--17-17-17-17-15--15-15-15-15-|

 
VERSE 1 (PART 2)

E|---------------------------------|
B|---------------------------------|                             
G|---------------------------------|                            
D|-17--17-17-17-17-19--19-19-19-19-|    REPEAT P1 -P2 3 TIMES
A|-17--17-17-17-17-19--19-19-19-19-|
E|-17--17-17-17-17-19--19-19-19-19-|

 

AFTER VERSE/PRE CHORUS(TREMELO ARM DOWN)
[ Tab from: http://www.guitartabs.cc/tabs/s/skarlet/endless_regret_tab.html ]
E|---------------------------------|
B|15-15-15-------------------------|
G|----------14-14-14-14-13-13-13-13|  TIMES 3
D|---------------------------------|
A|---------------------------------|
E|---------------------------------|
 

CHORUS

E|-------------------------|
B|-------------------------|
G|----10-----10------------|          TIMES 4
D|-99----99------999888777-|
A|-99----99------999888777-|
E|-99----99------999888777-|

 
END CHORUS

E|----------|
B|----------|
G|----------|
D|----------|
A|----------|
E|-*3*3*3*3-|

 
INTERLUDE (INC LYRICS)

E|-----------------------------|
B|-----------------------------|
G|-----------------------------|  TIMES 4
D|-----777--------999----------|
A|------------888------888-----|
E|-999----999-------------999--|

 
CHORUS

E|-------------------------|
B|-------------------------|
G|----10-----10------------|   TIMES 4
D|-99----99------999888777-|
A|-99----99------999888777-|
E|-99----99------999888777-|

 
CHORUS

E|-------------------------|
B|-------------------------|
G|----10-----10------------|  TIMES 4
D|-99----99------999888777-|
A|-99----99------999888777-|
E|-99----99------999888777-|

 

END CHORUS

E|----------|
B|----------|
G|----------|
D|----------|
A|----------|
E|-*3*3*3*3-|

 
OUTRO (TREMELO ARM DOWN)

E|---------------------------------|
B|15-15-15-------------------------|
G|----------14-14-14-14-13-13-13-13|  TIMES 3
D|---------------------------------|
A|---------------------------------|
E|---------------------------------|

 
END ON

E|--------------------------------------|
B|--------------------------------------|
G|--------------------------------------|
D|-12-12-12-19191919191919191919/3----1-|
A|-12-12-12-19191919191919191919/3----1-|
E|-12-12-12-19191919191919191919/3----1-|
Comments