Skarlateens - Jo Lcureuil Chords & Tabs

 

Jo Lcureuil Chords & Tabs

Skarlateens Chords & Tabs

Version: 1 Type: Bass Tab 0 ratings
1 star 2 stars 3 stars 4 stars 5 stars
comments

Jo Lcureuil Bass Tab

Tabbed by Dav
Artist: Skarlateens
Title: Jo l'écureuil
Instument: Bass

  Intro (4x)
g:-0-7-9-7-0-7-9-7-0-7-9-7---------| 
d:------------------------8-10-8-7-| 
a:---------------------------------| 
e:---------------------------------|
  
  Break (2x)
g:---------------------------------| 
d:---------------------------------| 
a:-----------------7-7-7-7-5-5-5-5-| 
e:-5-5-5-5-5-5-5-5-----------------| 
  
  Couplet
g:---------------------------------| 
d:---------------------------------| 
a:---------7-7-7-7-5-5-5-5-7-7-7-7-| 
e:-5-5-5-5-------------------------|

g:---------------------------------| 
d:---------------------------------| 
a:---------7-7-7-7-5-5-5-5-2-2-2-2-| 
e:-5-5-5-5-------------------------|

g:---------------------------------| 
d:---------------------------------| 
a:---------7-7-7-7-5-5-5-5-7-7-7-7-| 
e:-5-5-5-5-------------------------|

g:---------------------------------| 
d:-------------------------5-5-5-5-| 
a:---------7-7-7-7-5-5-5-5---------| 
e:-5-5-5-5-------------------------|

  Break (2x)
g:---------------------------------| 
d:---------------------------------| 
a:-----------------7-7-7-7-5-5-5-5-| 
e:-5-5-5-5-5-5-5-5-----------------|

  Couplet
g:---------------------------------| 
d:---------------------------------| 
a:---------7-7-7-7-5-5-5-5-7-7-7-7-| 
e:-5-5-5-5-------------------------|

g:---------------------------------| 
d:---------------------------------| 
a:---------7-7-7-7-5-5-5-5-2-2-2-2-| 
e:-5-5-5-5-------------------------|

g:---------------------------------| 
d:---------------------------------| 
a:---------7-7-7-7-5-5-5-5-7-7-7-7-| 
e:-5-5-5-5-------------------------|

g:---------------------------------| 
d:-------------------------5-5-5-5-| 
a:---------7-7-7-7-5-5-5-5---------| 
e:-5-5-5-5-------------------------|

  Break (2x)
g:---------------------------------| 
d:---------------------------------| 
a:-----------------7-7-7-7-5-5-5-5-| 
e:-5-5-5-5-5-5-5-5-----------------| 

  Refrain
g:---------------------------------| 
d:---------------------------------| 
a:---------7-7-7-7-5-5-5-5-7-7-7-7-| 
e:-5-5-5-5-------------------------|

g:---------------------------------| 
d:---------------------------------| 
a:---------7-7-7-7-5-5-5-5-2-2-2-2-| 
e:-5-5-5-5-------------------------|

g:---------------------------------| 
d:---------------------------------| 
a:---------7-7-7-7-5-5-5-5-7-7-7-7-| 
e:-5-5-5-5-------------------------|

g:---------------------------------| 
d:-------------------------5-5-5-5-| 
a:---------7-7-7-7-5-5-5-5---------| 
e:-5-5-5-5-------------------------|
[ Tab from: http://www.guitartabs.cc/tabs/s/skarlateens/jo_lcureuil_btab.html ]
 Break (2x)
g:---------------------------------| 
d:---------------------------------| 
a:-----------------7-7-7-7-5-5-5-5-| 
e:-5-5-5-5-5-5-5-5-----------------| 
  
  Couplet
g:---------------------------------| 
d:---------------------------------| 
a:---------7-7-7-7-5-5-5-5-7-7-7-7-| 
e:-5-5-5-5-------------------------|

g:---------------------------------| 
d:---------------------------------| 
a:---------7-7-7-7-5-5-5-5-2-2-2-2-| 
e:-5-5-5-5-------------------------|

g:---------------------------------| 
d:---------------------------------| 
a:---------7-7-7-7-5-5-5-5-7-7-7-7-| 
e:-5-5-5-5-------------------------|

g:---------------------------------| 
d:-------------------------5-5-5-5-| 
a:---------7-7-7-7-5-5-5-5---------| 
e:-5-5-5-5-------------------------|

  Break (2x)
g:---------------------------------| 
d:---------------------------------| 
a:-----------------7-7-7-7-5-5-5-5-| 
e:-5-5-5-5-5-5-5-5-----------------|

  Couplet
g:---------------------------------| 
d:---------------------------------| 
a:---------7-7-7-7-5-5-5-5-7-7-7-7-| 
e:-5-5-5-5-------------------------|

g:---------------------------------| 
d:---------------------------------| 
a:---------7-7-7-7-5-5-5-5-2-2-2-2-| 
e:-5-5-5-5-------------------------|

g:---------------------------------| 
d:---------------------------------| 
a:---------7-7-7-7-5-5-5-5-7-7-7-7-| 
e:-5-5-5-5-------------------------|

g:---------------------------------| 
d:-------------------------5-5-5-5-| 
a:---------7-7-7-7-5-5-5-5---------| 
e:-5-5-5-5-------------------------|

  Break (2x)
g:---------------------------------| 
d:---------------------------------| 
a:-----------------7-7-7-7-5-5-5-5-| 
e:-5-5-5-5-5-5-5-5-----------------| 

  Refrain
g:---------------------------------| 
d:---------------------------------| 
a:---------7-7-7-7-5-5-5-5-7-7-7-7-| 
e:-5-5-5-5-------------------------|

g:---------------------------------| 
d:---------------------------------| 
a:---------7-7-7-7-5-5-5-5-2-2-2-2-| 
e:-5-5-5-5-------------------------|

g:---------------------------------| 
d:---------------------------------| 
a:---------7-7-7-7-5-5-5-5-7-7-7-7-| 
e:-5-5-5-5-------------------------|

g:---------------------------------| 
d:-------------------------5-5-5-5-| 
a:---------7-7-7-7-5-5-5-5---------| 
e:-5-5-5-5-------------------------|

Break (2x)
g:---------------------------------| 
d:---------------------------------| 
a:-----------------7-7-7-7-5-5-5-5-| 
e:-5-5-5-5-5-5-5-5-----------------|

  Couplet
g:---------------------------------| 
d:---------------------------------| 
a:---------7-7-7-7-5-5-5-5-7-7-7-7-| 
e:-5-5-5-5-------------------------|

g:---------------------------------| 
d:---------------------------------| 
a:---------7-7-7-7-5-5-5-5-2-2-2-2-| 
e:-5-5-5-5-------------------------|

g:---------------------------------| 
d:---------------------------------| 
a:---------7-7-7-7-5-5-5-5-7-7-7-7-| 
e:-5-5-5-5-------------------------|

g:---------------------------------| 
d:-------------------------5-5-5-5-| 
a:---------7-7-7-7-5-5-5-5---------| 
e:-5-5-5-5-------------------------|

Solo de batterie

Flute de pinte
Comments