Ska-p - Nio Soldado Chords & Tabs

 

Nio Soldado Chords & Tabs

Ska-p Chords & Tabs

Version: 1 Type: Bass Tab 0 ratings
1 star 2 stars 3 stars 4 stars 5 stars
comments

Nio Soldado Bass Tab

The bass start in the end of first verse...he do it:

G----------------------------
D----------------------------
A----------------------------
E--5s10-10-10-10s5-----------

Verse 'Fui secuestrado...'

G---------------------------------------------------------------------
D---------------------------------------------------------------------
A-55555555-----------------------55555555-----------------------------
E----------55555555-333333333333----------55555555-333333333333-55-33-(x2)

'Me han oligado a diparar...'

G------------------------------------------------------------------------------------------------------
D-----------------------------------------------------------------7-5----------------------------------
A------------------0-5555-0-5555-0------------------5555555555555-----7-5--------------0-5555-0-5555-0-
E-5-6-7-7777777777-----------------5-6-7-7777777777-----------------------7-7777777777-----------------

'En un infierno terrenal...'

G--------------------------------
D--------------------------------
A--------------------77---77-----
E-7-77777777777777-5----5----5s0-

'Hey no...'

G-----------------------------------------------------------------
D-----------------------------------------------------------------
A-5-555555-----------------------------5-555555-------------------
E----------5-555555-7-777777-3-333333-----------5-555555-3-333333-(x2)

rythm  (Ska)

G--------------------------------------------------------------------------------
D---4-77-4------77-4----4-55-4-----------4-77-4------4-7------4-55-4--5-4-5-7s12-
A-5-----------4------77----------------5-----------4-----5-77--------------------
E----------55------------------33-3-5-----------55-------------------------------(x2)

'Una pistola en mi cabeza...' Nota: pongo las barras para que sepan que
es (E--15--) y no uno y cinco seguidas.

G-------------------------------------------------------------------------------------
D-------------------------------------------------------------------------------------
A-5-555555----------------------------17|17-------------------------------------------
E----------5-555555s15|15|15|15|15|15-------15s8-888888-5-555555s15|15|15|15|15|15|15-

'Soy una maquina de guerra...'

G---------------------------------------------------------------------
D---------------------------------------------------------------------
A-55555555-----------------------55555555-----------------------------
E----------55555555-333333333333----------55555555-333333333333-55-33-

'Me han oligado a diparar...'
[ Tab from: http://www.guitartabs.cc/tabs/s/ska_p/nio_soldado_btab.html ]
G------------------------------------------------------------------------------------------------------
D-----------------------------------------------------------------7-5----------------------------------
A------------------0-5555-0-5555-0------------------5555555555555-----7-5--------------0-5555-0-5555-0-
E-5-6-7-7777777777-----------------5-6-7-7777777777-----------------------7-7777777777-----------------

'En un infierno terrenal...'

G--------------------------------
D--------------------------------
A--------------------77---77-----
E-7-77777777777777-5----5----5s0-

'Hey no...'

G-----------------------------------------------------------------
D-----------------------------------------------------------------
A-5-555555-----------------------------5-555555-------------------
E----------5-555555-7-777777-3-333333-----------5-555555-3-333333-(x2)

Solo de guitarra

G-------------------------------------------------------------------------------
D-----77--------77--------------------------------------------------------------
A-5-5----5--5-5----5-----77--------77---------99--------99-------55--------55---
E--------------------5-5----5--5-5----5-6-7-7----7--7-7----7s3-3----3--3-3----3-(x2)

'Me han oligado a diparar...'

G------------------------------------------------------------------------------------------------------
D------------------------------------------------------------------7-5---------------------------------
A------------------0-5555-0-5555-0------------------55555555555555-----7-5--------------0-5555-0-5555-0
E-5-6-7-7777777777-----------------5-6-7-7777777777-----------------------7-7777777777-----------------

'En un infierno terrenal...'

G--------------------------------
D--------------------------------
A--------------------77---77-----
E-7-77777777777777-5----5----5s0-

'Hey no...'

G-----------------------------------------------------------------
D-----------------------------------------------------------------
A-5-555555-----------------------------5-555555-------------------
E----------5-555555-7-777777-3-333333-----------5-555555-3-333333-(x2)

G--------------------------------------------------------------------------------
D---4-77-4------77-4----4-55-4-----------4-77-4------4-7------4-55-4--5-4-5-7s12-
A-5-----------4------77----------------5-----------4-----5-77--------------------
E----------55------------------33-3-5-----------55-------------------------------(x2)

End

G-----------
D-----------
A-----------
E--32-3-5---(x3)

G-----------
D-----------
A----5------
E-----------
Comments