Ska-p - Mis Colegas Chords & Tabs

 

Mis Colegas Chords & Tabs

Ska-p Chords & Tabs

Version: 1 Type: Bass Tab 0 ratings
1 star 2 stars 3 stars 4 stars 5 stars
comments

Mis Colegas Bass Tab

Ska-P/Mis Colegas

VERSE:

G-------------------------------------------
D-------------------------------------------
A----------5555---3333-----------5555--3333-
E-3333----------------------3333------------
Vas caminando despacio, sin ganas de sonreír, de sonreír

G-----------------------------------------------------
D-----------------------------------------------------
A----------55555------3333------------------333333----
E-3333---------------------------555555---------------
Hemos quedado en el barrio, unos litros y cien duros de hachís.

G----------------------------------------------
D----------------------------------------------
A----------5555---3333--------------5555--3333-
E-3333-----------------------3333--------------
Perdidos en cualquier lado, soñando con escapar, con escapar

G-----------------------------------------------------
D-----------------------------------------------------
A----------55555------3333------------------333333----
E-3333---------------------------555555---------------
La mayoría del paro, y el que curra del trabajo temporal

G--------------------------------------------------
D--------------------------------------------------
A----------55555---33333---------------5555---3333-
E-33333------------------------3333----------------
El que no anda en el mako, hace poko lo acabaron de enterrar

G------------------------
D------------------------
A----------33333---55555—
E-55555------------------
La heroína no acudió a su funeral

CHORUS:

G------------------------------------------------------------------
D------------------------------------------------------------------
A------------------------------------333333333---------------------
E--33333333333-------------------------------------------333333333—
Eh, chaval, siempre a la sombra de la sociedad, somos la causa de su malestar

G----------------------------------
D----------------------------------
A--55555---33333-------------55555-
E-----------------------33333------
Escúpele al sistema y nunca dejes de molestar

G------------------------------------------------------------------
D------------------------------------------------------------------
A------------------------------------333333333---------------------
E--33333333333-------------------------------------------333333333—
No, chaval, no es ley de vida tu desigualdad, no te dieron la oportunidad
[ Tab from: http://www.guitartabs.cc/tabs/s/ska_p/mis_colegas_btab.html ]
G-------------------------------------
D-------------------------------------
A--55555---33333-------------55555----
E-----------------------33333---------
Escúpele al sistema y nunca dejes de molestar

G----------------------------------------
D----------------------------------------
A-3333---------------3333----------------
E-----------3333--------------3333-------
Existe una alternativa,  legalizar,

G----------------------------------------
D----------------------------------------
A-33333-------------------55555-----3333-
E------------33333-----------------------
Esto tiene que cambiar, lo vamos a cambiar

VERSE 
CHORUS 

G------------------------------
D------------------------------
A-----------------55555—3333---
E--000--1-3--------------------
Agresividad!!!           No somos ratas de ciudad

G------------------------------
D------------------------------
A------------------55555—3333--
E--000--1-3--------------------
Agresividad!!!             Contra el estado del malestar

G-----------------------------
D-----------------------------
A-----------------55555—3333--
E--000--1-3-------------------
Agresividad!!!           No somos ratas de ciudad

G-----------------------------
D-----------------------------
A-----------------55555—3333--
E--000--1-3-------------------
Agresividad!!!             Contra el estado del malestar


VERSE


G--------------------------------------------------
D--------------------------------------------------
A----------55555---33333---------------5555---3333-
E-33333------------------------3333----------------
Del paraíso al infierno, hay un paso nada más,

G---------------------------
D---------------------------
A----------55555---33333----
E-33333---------------------
La prohibición es un business

G--------------------------------------------
D--------------------------------------------
A----------33333--------------33333—55555----
E-55555--------------55555-------------------
La droga existe y no la vas a eliminar, la solución consiste en legalizar

CHORUs

VERSE

G----------------------
D----------------------
A-555555555--333333333-
E----------------------
A mis colegas y a la peña en general

G----------------------
D----------------------
A-555555555--333333333-
E----------------------
No os dejéis nunca, nunca esclavizar,

G-------------------------------------------------
D-------------------------------------------------
A-555555555---------------33333-------------------
E-------------------------------------------3333--
La unión hace la fuerza    Nunca lo has de olvidar

If you have any question e-m@il: Capitanlitronico@hotmail.com
Comments