Ska-p - A La Mierda Chords & Tabs

 

A La Mierda Chords & Tabs

Ska-p Chords & Tabs

Version: 1 Type: Bass Tab

A La Mierda Bass Tab

SKA-P
A la mierda (basse)

couplet 1:
-----------------------------------------------------------------|
-----------------------------------------------------------------|      x2
----------------5-5-5-5-5-5-5-5-7-7-7-7-7-7-7-7-3-3-3-3-3-3-3-3--|
3-3-3-3-3-3-3-3--------------------------------------------------|

refrain:
-----------------------------------------------------------------|
-----------------------------------------------------------------|      x2
--------5-5-5-5-7-7-7-7-3-3-3-3---------5-5-5-5-3-3-3-3-3-3-3-3--|
3-3-3-3-------------------------3-3-3-3--------------------------|

couplet 2:
--------------------------------------------------------------------|
-------------------4-7-7---4-7-7----6-9-9---6-9-9----2-5-5---2-5-5--|      x2
--2-5-5---2-5-5--5-------5--------7-------7--------3-------3--------|
3-------3-----------------------------------------------------------|

refrain:
-----------------------------------------------------------------|
-----------------------------------------------------------------|      x2
--------5-5-5-5-7-7-7-7-3-3-3-3---------5-5-5-5-3-3-3-3-3-3-3-3--|
3-3-3-3-------------------------3-3-3-3--------------------------|

partie instru:
-----------------------------------------------------------------|
-----------------------------------------------------------------|      x2
--------5-5-5-5-7-7-7-7-7-7-7-7---------5-5-5-5-3-3-3-3-3-3-3-3--|
3-3-3-3-------------------------3-3-3-3--------------------------|

couplet 3:
-----------------------------------------------------------------|
-----------------------------------------------------------------|
----------------5-5-5-5-5-5-5-5-7-7-7-7-7-7-7-7-3-3-3-3-3-3-3-3--|
3-3-3-3-3-3-3-3--------------------------------------------------|
[ Tab from: http://www.guitartabs.cc/tabs/s/ska_p/a_la_mierda_btab.html ]
-------------------------------------------------------------|
-------------------4-7-7---4-7-7----6-9-9---6-9-9----2-5-5---|
--2-5-5---2-5-5--5-------5--------7-------7--------3-------3-|
3-------3----------------------------------------------------|

refrain:
-----------------------------------------------------------------|
-----------------------------------------------------------------|      x2
--------5-5-5-5-7-7-7-7-3-3-3-3---------5-5-5-5-3-3-3-3-3-3-3-3--|
3-3-3-3-------------------------3-3-3-3--------------------------|

partie instru:
-----------------------------------------------------------------|
-----------------------------------------------------------------|      x2
--------5-5-5-5-7-7-7-7-7-7-7-7---------5-5-5-5-3-3-3-3-3-3-3-3--|
3-3-3-3-------------------------3-3-3-3--------------------------|

break (Oh!,seguiré en mi condición...): ??? (là fo que je demande à mon pote bassiste)
----------------------------------------------------------------|
----------------------------------------------------------------|
----------------------------------------------------------------|
----------------------------------------------------------------|
dernier refrain + fin:
---------------------------------------------------------------|
---------------------------------------------------------------|      x2
--------7-7-7-7-9-9-9-9-5-5-5-5---------7-7-7-7-5-5-5-5-5-5-5--|
5-5-5-5-------------------------5-5-5-5------------------------|

------------------------------------------------------------------------|
------------------------------------------------------------------------|      x2
--------7-7-7-7-9-9-9-9-9-9-9-9---------7-7-7-7-5-5-5-5-5-5-5-5---------|
5-5-5-5-------------------------5-5-5-5---------------------------------|
-----------------------------7d33b63a1ec--------------------------------|