Sixpence None The Richer - There She Goes Chords & Tabs

 

There She Goes Chords & Tabs

Sixpence None The Richer Chords & Tabs

Version: 5 Type: Tab 0 ratings
1 star 2 stars 3 stars 4 stars 5 stars
comments

There She Goes Tab

   
There she goes... Haha christian band playing a song about heroin, its funny as hell!! But

anyways, I haddent found a tab that covered the whole song properly.

Cappo 3rd*****
Listen to the song for strumming

VERSE:

e--3-----2------3----------------------------|
b--3-----3------3----------------------------|
G--0-----2------0----------------------------|
D--0------------2----------------------------|x3
A--2------------3----------------------------|
E--3------------x----------------------------|

   G     D      Cadd9

And then the can't contain part
BRIDGE1:

e-0---0---0---0---2----------------------------|
b-1---1---1---1---3----------------------------|
G-2---0---2---0---2----------------------------|
D-2---2---2---2--------------------------------|
A-0---3---0---3--------------------------------|
E-----0-------0--------------------------------|

  Am  C   Am  C   D

1:32

here the song slows down at a bridge
[ Tab from: http://www.guitartabs.cc/tabs/s/sixpence_none_the_richer/there_she_goes_tab_ver_5.html ]
here just play the verse 2  times (exept the last Cadd9 is shorter), slower strumming then

he plays D G three times, then play D Cadd9. after that it goes to the  BRIDGE1. then the

song finishes off with the same old thing, simple.

Second Guitar

For Almost All Throughout The Song:
e-3-5-2-3-0-0-0-3--------------------|
b--3-3-3-3-0-0-0-3-------------------|
G------------------------------------|x3
D------------------------------------|
A------------------------------------|
E------------------------------------|

e--3-5-3------3-3-3-3--22222222------|
b-5-----5-3\5--5-5-5-5-33333333------|
G----------------------22222222------|
D------------------------------------|
A------------------------------------|
E------------------------------------|


After the slow bridge:

e--33-55-3---33-55b-3------3-3-3-3--22222222-|
b-5-------5-5--------5-3\5--5-5-5-5-33333333-|
G-----------------------------------22222222-|
D--------------------------------------------|
A--------------------------------------------|
E--------------------------------------------|
Comments