Sixpence None The Richer - The Garden Chords & Tabs

 

The Garden Chords & Tabs

Sixpence None The Richer Chords & Tabs

Version: 1 Type: Tab 0 ratings
1 star 2 stars 3 stars 4 stars 5 stars
comments

The Garden Tab

   
Artist Name : Sixpence None the Richer
Song Name   : The Garden
Added By Mikhailo


Guitar A:
E |-----------------------------------------------------------------|
B |-----------------------------------------------------------------|
G |----------------------------------7-5----------------------------|
D |---0-2---4-5-7---9---10p9p7h9---7-----9-7-5---4---5---2----------|
A |-----------------------------------------------------------------|
E |-----------------------------------------------------------------|

Guitar B:
E |-----------------------------------------------------------------|
B |-----------------------------------------------------------------|
G |-----------------------------------------------------------------|
D |---9/14---12-10-12-9/10-7/9-5/7-4/5-4-5-4---/9\7-----5-----------|
A |-----------------------------------------------------------------|
E |-----------------------------------------------------------------|



Verse:
[ Tab from: http://www.guitartabs.cc/tabs/s/sixpence_none_the_richer/the_garden_tab.html ]
Em              Em7             Cmaj7
E |-----------------------------------------------------------------|
B |-----0-----0-------0-------0-------------0-------------0---------|
G |---0---0-----0-------0-------0---------0-----0-------0-----0-----|
D |---------2-----2-------0-------0-----2-------------2---------2---|
A |---------------------------------3-------------3-----------------|
E |-----------------------------------------------------------------|

Em              Em7             C
E |-------------------------------------------------------0---------|
B |-----0-----0-------0-------0-------------1-----------1-----1-----|
G |---0---0-----0-------0-------0---------0-----0-----0---------0---|
D |---------2-----2-------0-------0-----2---------2-----------------|
A |---------------------------------3-------------------------------|
E |-----------------------------------------------------------------|



Em    Em7
White ribbon
Cmaj7
Wedding gown
Em                  Em7
She walked into the garden
C
What has she found

G      C
Oh the sorrow
Em     D
Untold sorrow
G           C     Em     D
There would be no groom
G      C
Oh the sorrow
Em     D
Untold sorrow
G           C     Em
There would be no groom

She left him as she found him
Empty inside
But this time it was much too late
Nothing to hide

D      C    D
Her soul
C   D
Never left
C    D
Never left
C       D   C   Em
Never left the garden

Black ribbon
Long black gown
She's walking through her memory
She's so alone
Comments