Sixpence None The Richer - Tension Like A Passing Note Chords & Tabs

 

Tension Like A Passing Note Chords & Tabs

Sixpence None The Richer Chords & Tabs

Version: 1 Type: Tab 0 ratings
1 star 2 stars 3 stars 4 stars 5 stars
comments

Tension Like A Passing Note Tab

   
Chords:

Asus4/B  (020230)
Aadd11   (000220)
D        (000232)
Dsus2    (000230)
Dsus4    (000234)
Em7      (020030)

==================
(Intro + 1st Couplet)

    D             Dsus2       Dsus4      D            Em7      Aadd11  Asus4/B

E|-10-----10-----9-----9-----7-----7----5------5-------------------------------|
B|-----7------------10-----------0--------------------3----3---2---2--3----3-3-|
G|----7-7----------9--9---------7-7-------6-------------0--------2------2------|
D|---------------0-----------0----------7----7---------0-0------0-0----0-0-----|
A|--------------------------------------5-------------2--------0------2------2-|
D|--0~~~~~~~~~~~~~~~~~~~~~~~~~~~~~~~~~~~~~~~~~~~~~~~~~~~~~~~~~~~~~~~~~~~~~~~~~~

    do           I           mur  der   when    I   forget you from  afar...too
    drunk on the  poison  of endless roads and the   countless smokey bars...

Chorus:

     Asus4/B         Dsus2      Asus4/B     Dsus2         Asus4/B      Dsus2
[ Tab from: http://www.guitartabs.cc/tabs/s/sixpence_none_the_richer/tension_like_a_passing_note_tab.html ]
E|------------------------------------------------------------------------------|
B|-3-3-------3---3-------3--3-------3---3----------3--3---------3--3--------3---|
G|---2---2-------2---2------2---2-------2-----2-------2----2-------2----2-------|
D|-----0---0-------0---0----0-0---0--------0-----0------0-----0-------0---0---0-|
A|-2-2-----------0----------2-----------0-------------2------------0------------|
D|------------------------------------------------------------------------------|

 but tension is   to be    loved    when it is like a passing note      to a

         Asus4/B     Aadd11     D

E|------------------------------2---|
B|--3-------3---2-------2------3----|
G|--2---2-------2---2---------2-----|
D|----0---0-------0---0------0------|
A|--2-----------0-----------0-------|
D|-------------------------0--------|

        beautiful    beautiful  chord

1st Couplet:

 D   Dsus2     Dsus4
 do    I      murder

 D         Em7     Aadd11  Asus4/B
 when I forget you from    afar

 D                Dsus2     Dsus4   D
 too drunk on the poison of endless roads

         Em7       Aadd11 Asus4/B
 and the countless smokey bars
(to Chorus)


2nd Couplet:

 D   Dsus2     Dsus4
 do    I      murder

 D       Em7      Aadd11  Asus4/B
 putting pavement in my   veins

 D           Dsus2   Dsus4-D
 shooting in special hero--in

         Em7     Aadd11    Asus4/B
 for the seeking and    displaced


Chorus:
 but tension is to be loved
 when it is like a passing note
 to a beautiful, beautiful chord

(Solo)
(back to intro)

 but tension is to be loved
 when it is like a passing note
 to a beautiful, beautiful
 tension is to be loved
 when it is like a passing note
 to a beautiful, beautiful chord
Comments