Sixpence None The Richer - Kiss Me Chords & Tabs

 

Kiss Me Chords & Tabs

Sixpence None The Richer Chords & Tabs

Version: 1 Type: Tab 2 ratings
1 star 2 stars 3 stars 4 stars 5 stars
comments

Kiss Me Tab

   
Kiss Me
Sixpence None the Richer

Capo 1st


Intro: D Dmaj7 D7 Dmaj7     x2


1st verse:
D       Dmaj7
 Kiss me out of the bearded barley
D7     Dmaj7
 Nightly beside the green green grass
D            Dmaj7
 Swing swing, swing the spinning step
D7                            G
 You wear those shoes and I will wear that dress


Chorus:
    Em     A D            Bm
 Oh, kiss me beneath the milky twilight
Em     A D           D7
 Lead me out on the moonlit floor
Em         A
 Lift your open hand
D              Dmaj7              D7
 Strike up the band and make the fireflies dance
  Bm            G*     Asus4-Asus4-A         D
 Silvermoon’s sparkling             so kiss me


Intermediate 1: D Dmaj7 D7 Dmaj7 BREAK

[ Tab from: http://www.guitartabs.cc/tabs/s/sixpence_none_the_richer/kiss_me_tab.html ]
2nd verse: (chords as in 1st)
Kiss me down by the broken tree house
Swing me upon it’s hanging tyre
Bring bring, bring your flowered hat
We’ll take the trail marked on your father’s map


Chorus (as before)


Intermediate 2: (played quietly)

e-----2-----2-------------0-2-------------0-2-------------0-2-----
B---3-----3---3-------2-------2-------1-------1-------2-----------
D-------2-------2---2---2-------2---2---2-------2---2---2---------
G-0---------------4-------------------------------4---------------
A---------------------------------3-------------------------------
E-----------------------------------------------------------------


Intermediate 3: Em A D Bm Em A D D7


Chorus (as before)


End:
          D Dmaj7 D7 Dmaj7
 So kiss me

REPEAT, THEN END ON D


Special Chords:

G*: (G followed by small fill)

e-3-3---2---------
B-3---3-----3---0-
G-0-----------2---
D-0---------------
A-2---------------
E-3---------------




tabbed by Mikkel Jensen, Denmark
If you have any questions, comments, corrections etc. mail me at:
mikkel.mensen@get2net.dk
Comments