Sixpence None The Richer - Kiss Me Chords & Tabs

 

Kiss Me Chords & Tabs

Sixpence None The Richer Chords & Tabs

Version: 3 Type: Bass Tab 0 ratings
1 star 2 stars 3 stars 4 stars 5 stars
comments

Kiss Me Bass Tab

Artist: Sixpence None the Richer
Song: Kiss Me
Tabbed by: Kris Cox

Bass Tab

Other bass tabs I've seen for this song require down-tuning your bass.  This tab doesn’t
require down-tuning, and is still pretty darn close to the actual bass line.


After the 8 bar (2 phrases) intro with no bass…

|--------|--------|--------|--------|--------|--------|--------|--------|
|--------|--------|--------|--------|--------|--------|--------|6-------|
|6-------|6-------|6-------|6-------|6-------|6-------|6-------|--------|
|--------|--------|--------|--------|--------|--------|--------|--------|

|--------|--------|--------|--------|--------|--------|--------|--------|--------|
|--------|--------|--------|--------|--------|--------|--------|--------|--------|
|8-------|6-------|8-------|6--6-6--|8-------|6---5---|--------|--------|--------|
|---6-6--|---8-8--|---6-6--|--------|---6-6--|--------|8---6---|4-------|6-------|

|----88--|----78--|----68--|----78--|
|--8----8|--8----8|--8----8|--8-----|
|6-------|6-------|6-------|6-------|
|--------|--------|--------|--------|

|----------------|----------------|----------------|----------------|
|--------------68|--------------68|--------------68|--------------68|
|6-----6---6-----|6-----6---6-----|6-----6---6-----|6-----6---6-----|
|----------------|----------------|----------------|----------------|

|----------------|----------------|----------------|----------------|
|--------------68|--------------68|--------------68|6-----6---6-----|
|6-----6---6-----|6-----6---6-----|6-----6---6-----|----------------|
|----------------|----------------|----------------|----------------|
[ Tab from: http://www.guitartabs.cc/tabs/s/sixpence_none_the_richer/kiss_me_btab_ver_3.html ]
|--------|--------|--------|--------|--------|--------|--------|--------|--------|
|--------|--------|--------|--------|--------|--------|--------|--------|--------|
|8-------|6-------|8-------|6--6-6--|8-------|6---5---|--------|--------|--------|
|---6-6--|---8-8--|---6-6--|--------|---6-6--|--------|8---6---|4-------|6-------|

|----88--|----78--|----68--|----78--|
|--8----8|--8----8|--8----8|--8----8|
|6-------|6-------|6-------|6-------|
|--------|--------|--------|--------|

|----88--|----78--|----68--|----78--|
|--8----8|--8----8|--8----8|--8-----|
|6-------|6-------|6-------|6-------|
|--------|--------|--------|--------|

|--------|--------|--------|--------|
|--------|--------|--------|--------|
|8-------|6-------|8-------|6--6-6--|
|---6-6--|---8-8--|---6-6--|--------|

|--------|--------|--------|--------|--------|--------|--------|--------|--------|
|--------|--------|--------|--------|--------|--------|--------|--------|--------|
|8-------|6-------|8-------|6--6-6--|8-------|6---5---|--------|--------|--------|
|---6-6--|---8-8--|---6-6--|--------|---6-6--|--------|8---6---|4-------|6-------|

|----88--|----78--|----68--|----78--|
|--8----8|--8----8|--8----8|--8-----|
|6-------|6-------|6-------|6-------|
|--------|--------|--------|--------|

|----88--|----78--|----68--|----78--|
|--8----8|--8----8|--8----8|--8-----|
|6-------|6-------|6-------|6-------|
|--------|--------|--------|--------|

|----------------|----------------|----------------|----------------|
|--------------68|--------------68|--------------68|--------------68|
|6-----6---6-----|6-----6---6-----|6-----6---6-----|6-----6---6-----|
|----------------|----------------|----------------|----------------|

|----------------|----------------|----------------|----------------|----------------|
|--------------68|--------------68|--------------68|--------------68|----------------|
|6-----6---6-----|6-----6---6-----|6-----6---6-----|6-----6---6-----|6---------------|
|----------------|----------------|----------------|----------------|----------------|


Comments