Six Feet Under - War Machine Chords & Tabs

 

War Machine Chords & Tabs

Six Feet Under Chords & Tabs

Version: 2 Type: Tab 0 ratings
1 star 2 stars 3 stars 4 stars 5 stars
comments

War Machine Tab

WAR MACHINE

of the cd "maximum violence"

intro
1)-----------------------------------------------------------
2)-----------------------------------------------------------
3)-----------------------------------------------------------
4)-----------------------------------------------------------
5)-----------------------------------------------------------
6)-0-7--0-5--0-7--0-5-0-3-5--0-7--0-3--0-5--0-5-0-3-5- repeat 4 times (i think)

4)---
5)-2-
6)-0- (let ring four 4 beats)

1)------------------------------------------------
2)------------------------------------------------
3)------------------------------------------------
4)------------------------------------------------
5)-5-7-9-9979-X-X-9999-7-7-2242-X-2-2-22-
6)-3-5-7-7757-X-X-7777-5-5-0030-X-0-0-00-
p.m.                              -   --        
[ Tab from: http://www.guitartabs.cc/tabs/s/six_feet_under/war_machine_tab_ver_2.html ]
4)-------------------
5)-9---9-7---7-2----
6)-7---7-5---5-0----

1)------------------------------------------------
2)------------------------------------------------
3)------------------------------------------------
4)------------------------------------------------
5)-5-7-9-9979-X-X-9999-7-7-2242-X-2-2-22-
6)-3-5-7-7757-X-X-7777-5-5-0030-X-0-0-00-
p.m.                              -   --                       

chorus
1)-----------------------------------------------------------
2)-----------------------------------------------------------
3)-----------------------------------------------------------
4)-----------------------------------------------------------
5)-2-9--2-7--2-9--2-7-2-5-7--2-9--2-5--2-7--2-7-2-5-7-
6)-0-7--0-5--0-7--0-5-0-3-5--0-7--0-3--0-5--0-5-0-3-5-

i don't know the solo let, but i'll tab it at a later date

	~Brandon 
Comments