Six Feet Under - Tnt Chords & Tabs

 

Tnt Chords & Tabs

Six Feet Under Chords & Tabs

Version: 1 Type: Tab 0 ratings
1 star 2 stars 3 stars 4 stars 5 stars
comments

Tnt Tab

This the best cover I've ever heard. Here it is :


intro and verses after the drum intro
|--------------------------------|
|--------------------------------|
|--------------------------------|
|-2==--2-2----2---2----2---------|  Repeat this 11 times then
|-2==--2-2----0---0----2---------|
|-0==--0-0-3----3---3--0---------|

Pre-chorus
|--------------------------------|
|--------------------------------|
|--------------------------------|
|--2-----------------------------|
|--2-----------------------------|
|--0--3===-----------------------|
      let ring

Chorus
|--------------------------------|
|--------------------------------|
|--------------------------------|
|--7---5---2---------------------| Repeat this 2 times then
|--7---5---2---------------------|
|--5---3---0---------------------|


|--------------------------------|
|--------------------------------|
|--------------------------------|
|--7---5---2-2-2-2-2-2-2-2-2-2---|
|--7---5---2-2-2-2-2-2-2-2-2-2---|
|--5---3---0-0-0-0-0-0-0-0-0-0---|
palm mute    *****************

|--------------------------------|
|--------------------------------|
|----------------------------2b--|
|--7---5---2-2-2-2-2-5--7--------|
|--7---5---2-2-2-2-2-5--7--------|
|--5---3---0-0-0-0-0-3--5--------|
palm mute    *******

Verse
|--------------------------------|
|--------------------------------|
|--------------------------------|
|-2==--2-2----2---2----2---------|  Repeat this 10 times then
|-2==--2-2----0---0----2---------|
|-0==--0-0-3----3---3--0---------|


Pre-chorus
|--------------------------------|
|--------------------------------|
|--------------------------------|
|--2-----------------------------|
|--2-----------------------------|
|--0--3===-----------------------|
      let ring


Chorus
|--------------------------------|
|--------------------------------|
|--------------------------------|
|--7---5---2---------------------| Repeat this 2 times then
|--7---5---2---------------------|
|--5---3---0---------------------|


|--------------------------------|
|--------------------------------|
|--------------------------------|
|--7---5---2-2-2-2-2-2-2-2-2-2---|
|--7---5---2-2-2-2-2-2-2-2-2-2---|
|--5---3---0-0-0-0-0-0-0-0-0-0---|
palm mute    *****************

|--------------------------------|
|--------------------------------|
|----------------------------2b--|
|--7---5---2-2-2-2-2-5--7--------|
|--7---5---2-2-2-2-2-5--7--------|
|--5---3---0-0-0-0-0-3--5--------|
palm mute    *******

Solo:
[ Tab from: http://www.guitartabs.cc/tabs/s/six_feet_under/tnt_tab.html ]
---------|-------------3-2-0----------------------------|--------------12----|
---------|--------------------3-2-0---------------------|-----15b~~~~-----15-|
---2b----|-2b----------------------2^0-------0----------|--------------------|
---------|-------------------------------3^0------------|--------------------|
---------|----------------------------------------------|--------------------|
---------|---------------------------------------19\--0-|-(0)----------------|

---------------------------------------------------------12-------------12---|
-12------12-------------------------------------------12-----15^12-12-12--12-|
-----14------14-14^12-----14-----12~~~~-------14b--(14)----------------------|
-----------------------14----14----------------------------------------------|
-----------------------------------------------------------------------------|
-----------------------------------------------------------------------------|

----------|----12-15-12----12------------------------------------------------|
-15b~~~~--|-------------15-----15-12----12-----------------------------------|
----------|--------------------------14----14--12-----14----12b--------------|
----------|----------------------------------------14----14------------------|
----------|-----------------------------------------------------14-12-12-14\-|
----------|------------------------------------------------------------------|
                ~~~~~~~~~~~~~~~~~~~~~~~~~~~~~~~~~
------------17b---------------|---------------------17\4\-------------------|
------------------------------|---------------------------------------------|
------------------------------|----------------------------0----------------|
------------------------------|---------------------------------------------|
------------------------------|---------------------------------------------|
------------------------------|---------------------------------------------|


Chorus
|--------------------------------|
|--------------------------------|
|--------------------------------|
|--7---5---2---------------------| Repeat this 6 times then
|--7---5---2---------------------|
|--5---3---0---------------------|


|--------------------------------|
|--------------------------------|
|--------------------------------|
|--7---5---2-2-2-2-2-2-2-2-2-2---|
|--7---5---2-2-2-2-2-2-2-2-2-2---|
|--5---3---0-0-0-0-0-0-0-0-0-0---|
palm mute    *****************

|--------------------------------|
|--------------------------------|
|--------------------------------|
|--7---5---2-2-2-2-2-5--7==------|
|--7---5---2-2-2-2-2-5--7==------|
|--5---3---0-0-0-0-0-3--5==------|
palm mute    *******    let ring

Solo 2:


e|---------------------------------------------------------------------------------|
B|---------------------------------------------------------------------------------|
G|---7B--8B--9B--10B--11B--12B--13B--14B---15B---16B---17B---18B---19B---20B---21B-|
D|-2---3---4---5----6-----7----8----9----10----11----12----13----14----15----16----|
A|-2---3---4---5----6-----7----8----9----10----11----12----13----14----15----16----|
E|-0---1---2---3----4-----5----6----7----8-----9-----10----11----12----13----14----|


I'm not really sure of this part that's why i'm going to try to find out another solution.
Comments